Frank Sinatra
Cake
Tabbed by, annoyance

Intro: normally done with an organ

E-----------------------------------------|
B-----------------------------------------|
G-----------------------------------------|
D-------4--------7------------------------|
A--4-44--4--4-44--4--4-4445---------5-4--|
E---------------------------5--5-55-------|

E-----------------------------------------|
B-----------------------------------------|
G-----------------------------------------|
D---------------7-------------------------|
A-2-0---2-4-4/7----5-----7----------------|
E-----5--------------5--7-----------------|




Ваше мнение



Капча