Cake
“Comfort Eagle”
Off the album “Comfort Eagle” (July 2001)
Tabbed by Greg Timpanaro
Email- [email protected]

Main Riff played throughout, use slight distortion.
Figure out the rhythm
E--------------------------------------------------------
B--------------------------------------------------------
G--------------------------------------------------------
D--------------------------------------------------------
A-2-2-2-2-2----------------------------------------------
E-0-0-0-0-0-0-1-0--0-0-0-0-0-4-1-0-----------------------
Chorus After 1:10 and other parts end chorus at 2:26
E----------------------------------------------------------
B----------------------------------------------------------
G----------------------------------------------------------
D----------------------------------------------------------
A---------------5-------------------------xx-x-xx----------
E-0-1-4--5-5--7-7-------------------------11-1-11----------

Guitar interlude at 2:34
E----------------------------------------------------------
B----------------------------------------------------------
G----------------------------------------------------------
D----------------------------------------------------------
A--7h8-7---5h7-5-5-3---2h3-2--0h2-0------------------------
E-0------0-----------0------0------4-1---------------------
Song Structure
Main Riff 11x
Dude Part (no guitar)
Main Riff 5x
Dude part (no guitar)
Chorus
Main Riff 5x
Democracy (no guitar)
Main Riff 6x
Chorus
End chorus
Guitar interlude
Outro/ main riff (fade)




Ваше мнение



Капча