Date: Mon, 25 Sep 1995 20:15:26 -0600 (CST)
From: Adrian Alberto Contreras Orezza
Subject: TAB: VIENTO by CAIFANES
_
==============ROCK EN ESPANOL=============================
VIENTO
CAIFANES
---------------
TRANSCRIBED BY: Adrian Adalberto Contreras Orezza.
[email protected]

This song is from the album CAIFANES EDICION ESPECIAL. 1993.
Word and music by: Saul Hernandez
Note: I took the lyrics from the album
Chords
F#m D G A Bm
----- ----- ----- ----- -----
|--2--| |--0--| |--3--| |--0--| |--x--|
|--2--| |--0--| |--2--| |--0--| |--3--|
|--2--| |--0--| |--0--| |--2--| |--4--|
|--4--| |--3--| |--0--| |--2--| |--4--|
|--4--| |--2--| |--0--| |--2--| |--2--|
|--2--| |--3--| |--3--| |--0--| |--x--|

(intro)
Guitar 1
(play it as fast as
You can)
B-----3-3-3-3-3-3-3-3-3-3-3-3-3---0-0-0-0-0-0-0---1-1-1-1-1-1-----3-3-3-3-3-3-
Guitar 2 (guitar 1 is played one more time)
E-------------------------------------------------15----------------
B-------------------------------------------15-------12------------
G--------------------------------------------------------------------
D-----0-(bend it with tremolo bar)-----------------------------
Rhy. Fig 1.
A-------------9-----7------9---7 --------------9-------7-------9------7--
E----10---10----10----10-----------10----10----10------10-----10-----
A-------------9---------------9----------------5------------------7----5----
E----7---7------10---7---7-----10---3---3------5------5---5-------------
A--------------9------7------9---7 --------------9-------7-------9------7--
E----10---10---10----10-------------10----10----10------10-----10-----
(whit fill 1.) end of rhy. Fig 1.
A-------------9---------------9----------------5------------------7----5----
E----7---7------10---7---7-----10---3---3------5------5---5-------------
Fill 1.
E-----17--------------------
B----------------------19---
G----------19----21--------
-Play Rhy Fig 1 two times
(Here you can play Rhy Fig 1 two more times, but without the Fill 1)
D
Prestame tu peine
Bm G A
Y peiname el alma
D
Desenredame
Bm G A
Fuera de este mundo
D
Di me que no
Bm _ G A
Estoy sonandote
D_
Ensename
Bm G A
De que estamos hechos.
(prechorus)
F#m
Yo quiero brincar planetas
G
Hasta ver uno vacio
F#m
Que quiero irme a vivir
G A
Pero que sea contigo
(chorus)
Rhy. Fig 2
E--------------14------12-------14----12---------------14-------12-------14----12---
B-----15--15-----15-------15----------------15---15--------15------15---------------
End of rhy.
Fig 2.
E---------------14--------------------15-----------------10-------------------12--10---
B----12---12-------15---12---12--------15---8---8-------10----10---10-------------
(here you need to play guitar 1 with rhy. Fig 1 and guitar 2 with rhy. Fig 2
Play it four times)
D Bm G A
Viento amarranos
D Bm _ G A
Tiempo detente muchos anos
D Bm G A
Viento amarranos
D Bm _ G A
Tiempo detente muchos anos
-Play rhy Fig. 1. but without the fill 1.
( verse 2 )
D
Prestame tu peine
Bm G A
Y peiname el alma
D
Purificame
Bm G A
No me abandones
D _
Prestame tu sueno
Bm G A
Y duermeme
D
Embrujame
Bm G A
Volvamonos eternos.
-Repeat prechorus and chorus. (fade in).
IF YOU HAVE ANY QUESTION OR SUGGESTION PLEASE SEND IT TO:
[email protected]
==========================================================================
...que quiero irme a vivir, pero que sea contigo...
-Saul Hernandez.-
==========================================================================

From: Leonardo Calva Medinilla
== Caifanes ==
--------
Viento
Riff A-------------------------------------------
P.M.--------------------------------------------+
E |-------------------------|----------------------|
B |-------------------------|----------------------|
G |-------------------------|----------------------|
D |-12-12-12-12-12-12-12-12-|-12-12-12-12-12-12-12-|
A |-------------------------|----------------------|
E |-------------------------|----------------------|
Riff A-------------------------------------+
P.M.---------------------------------------+
E |-----------------|-------------------------|
B |-----------------|-------------------------|
G |-----------------|-------------------------|
D |-9-9-9-9-9-9-9-9-|-10-10-10-10-10-10-10-10-|
A |-----------------|-------------------------|
E |-----------------|-------------------------|
C/Riff A
E |-----------------|-------------------15----|
B |-----------------|-15----------------------|
G |-----------------|----------------------16-|
D |-0---------(0)---|-------------------------|
A |--\-------/------|-------------------------|
E |---\ 1/2 /-------|-------------------------|
VERSO
-----
V v v ^ ^ v v v ^ ^ v v v ^ ^ v v v ^ ^
E |--------------------------| |----------------------|
B |--------------------------| |----------------------|
G |--------------------------| % |----------------------|
D |------4-4---------4-4-----| |------4-4-------4-4---|
A |--5-5-----5---7-7------7--| |--2-2-----2-2-2-----2-|
E |--------------------------| |----------------------|
V V V ^ ^ V V V ^ ^ 2x
E |--------------|-------------|
B |--------------|-------------|
G |--------------|-------------|
D |--------------|-------------|
A |------5-5-----|------7-7-7--|
E |--3-3------3--|--5-5--------|
PUENTE
------
E |-------------|---------------|---------------|------------|---------|
B |-------2-----|-------3-------|-------2-------|-------3----|-------5-|
G |-----2-------|-----4---------|-----2---------|-----4------|-----6---|
D |---4---------|---5-----------|---4-----------|---5--------|---7-----|
A |-4-----------|-5-------------|-4-------------|-5----------|-7-------|
E |-------------|---------------|---------------|------------|---------|
{ |P.M.------------------------------------------------------+
E |-------------|---------------|---------------|------------|
B |-------------|---------------|---------------|------------|
G |-7-7-7-7-7-7-|-7-7-7-7-5-5-5-|-7-7-7-7-7-7-7-|-7-7-7-7-7--|
D |-------------|---------------|---------------|------------|
A |-------------|---------------|---------------|------------|
E |-------------|---------------|---------------|------------|
CORO
----
E |----------------------|----------------------|
B |-10-10-10-10-10-10-10-|-12-12-12-12-12-12-12-|
G |-11-11-11-11-11-11-11-|-11-11-11-11-11-11-11-|
D |----------------------|----------------------|
A |----------------------|----------------------|
E |----------------------|----------------------|
Los simbolos sobre las notas en el verso indican el sentido en que se
Deben de tocar :
V - tocar hacia abajo
^ - tocar hacia arriba
Esto es para tocar mas facilmente..
En la parte del puente al coro, las notas que se tocan junto a los arpeggios
Solo se usan para acompanar a los acordes, por lo que debes de oir la
Cancion; lo mismo sucede con las notas del coro...
Preguntas, comentarios, correciones, etc... mandarlas a:
[email protected]




Ваше мнение



Капча