[email protected]
Eduardo A. Grijalva Meza
CAIFANES
~~~~~~~~~~~~~~~~~~~~
LA NEGRA TOMASA
INTRO:
~~~~~~~
E|-----------------------------------------------------------------
B|-----------------------------------------------------------------
G|-----------------------------------------------------------------
D|----------7---------9---------7---------9---------7---------9----
A|----------6-7-------6-9-------6-7-------6-9-------6-7--------6-9-
E|-----------------------------------------------------------------

A B A B
E|-----------------------------------------------------------------
B|-----------------------------------------------------------------
G|---------------------7-----9--------------------7----------------
D|--7----9-------------6-----6------7-----9-------6----------------
A|--6----6--------------------------6-----6------------------------
E|-----------------------------------------------------------------
Etoy......... de mi negra.. que cuando.. triste me pongo
CORO:
~~~~~~
Ay! ay! ay!!
E|-----------------3----------1----------------------------------------
B|-----------------2----------3----------------------------------------
G|------2---------------------3----------------------------------------
D|------2---------------------2----------------------------------------
A|------2---------------------1----------------------------------------
E|-----------------3----------1---------------------------------------

Acorde "A" acorde "B"
E|------0--------- E|------0---------------
B|------0--------- B|------2---------------
G|------2--------- G|------1---------------
D|------2--------- D|------0---------------
A|------1--------- A|------0---------------
E|------0--------- E|----------------------

NOTE:
IF YOU HAVE SOME QUESTION, PLEASE WRITE TO: [email protected]




Ваше мнение



Капча