Guitarra 1
e||---5--5~~~~-----5--5---|--3--3--3~~~~------2------||
B||---7--7~~~~-----7--7---|--5--5--5~~~~----3---3----||
G||-----------------------|--------------------------||
D||-----------------------|--------------------------||
A||-----------------------|--------------------------||
E||-----------------------|--------------------------||
Guitarra 1

e||---0-----------2-------|--------------------------||
B||-2---2--------3--------|--------------------------||
G||-------------4---------|--------------------------||
D||------------4----------|--------------------------||
A||-----------------------|--------------------------||
E||-----------------------|--------------------------||
Guitarra 1

e||--0--0----------2--2---|--3--3--------------------||
B||--2--2----------3--3---|--5----5------------------||
G||-----------------------|--------------------------||
D||-----------------------|--------------------------||
A||-----------------------|--------------------------||
E||-----------------------|--------------------------||
Guitarra 1

e||--2--0-------2---------|--------------------------||
B||--3--2------3----------|--------------------------||
G||-----------4-----------|--------------------------||
D||----------4------------|--------------------------||
A||-----------------------|--------------------------||
E||-----------------------|--------------------------||
Guitarra 2 (acorde) Bm
Guitarra 1
e||---5--5---------5--5---|--3--3--3----------2------||
B||---7--7---------7--7---|--5--5--5--------3---3----||
G||-----------------------|--------------------------||
D||-----------------------|--------------------------||
A||-----------------------|--------------------------||
E||-----------------------|--------------------------||
Guitarra 2
D
Guitarra 1

e||---0-----------2-------|--------------------------||
B||-2---2--------3--------|--------------------------||
G||-------------4---------|--------------------------||
D||------------4----------|--------------------------||
A||-----------------------|--------------------------||
E||-----------------------|--------------------------||
Guitarra 2
Bm

Guitarra 1

e||--0--0----------2--2---|--3--3--------------------||
B||--2--2----------3--3---|--5----5------------------||
G||-----------------------|--------------------------||
D||-----------------------|--------------------------||
A||-----------------------|--------------------------||
E||-----------------------|--------------------------||
Guitarra 1

e||--2--0-------2---------|---------||
B||--3--2------3----------|---------||
G||-----------4-----------|---------||
D||----------4------------|---------||
A||-----------------------|---------||
E||-----------------------|---------||
Guitarra 2

e||-----------------------|-7-------||
B||-----------------------|----7----||
G||-----------------------|-------7-||
D||-----------------------|---------||
A||-----------------------|---------||
E||-----------------------|---------||

Guitarra 1
()Harmonicos
e||---------2-----------------|--------3------3--------------------||
B||--------2------------------|--------0-----0-----(5)-------------||
G||-------3-------------------|--------0----0---------(5)----------||
D||------4--------------------|--------0---------------------------||
A||-----4---------------------|--------2---------------------------||
E||----2----------------------|--------3---------------------------||
Ay veces que no tengo ga-nas de Verte
Guitarra 2
c/Distor
e||---------------------------|------------------------------------||
B||---------------------------|------------------------------------||
G||---------------------------|---------------------------11p9-----||
D||---------------------------|------------------------------------||
A||---------------------------|------------------------------------||
E||---------------------------|------------------------------------||
Guitarra 1
e||---------2-----------------|-----------3------------------------||
B||--------2------------------|------------0-----------------------||
G||-------3-------------------|-------------0----------------------||
D||------4--------------------|--------------0---------------------||
A||-----4---------------------|---------------2--------------------||
E||----2----------------------|----------------3-------------------||
Ay veces que no quiero ni tocarte Guitarra 2
c/Distor
e||---------------------------|------------------------------------||
B||---------------------------|------------------------------------||
G||(9)h11---------------------|------------------------------------||
D||---------------------------|------------------------------------||
A||---------------------------|------------------------------------||
E||---------------------------|------------------------------------||
Acordes: A Bm C Bm A A
Digitacion: 2 2 2 2 2 2
3 3 3 3 3 3

Guitarra 1

e||---------0-----------------|--------2-------------------2-------||
B||--------2------------------|--------3------------------3--------||
G||-------2-------------------|--------4-----------------4---------||
D||------2--------------------|--------4----------------4----------||
A||-----0---------------------|--------2---------------------------||
E||----0----------------------|--------2---------------------------||
Ay veces que quisiera ahogarte en un grito
Guitarra 2
c/distor
e||---------------------------|------------------------------12-b--||
B||---------------------------|------------------------------------||
G||---------------------------|------------------------------------||
D||---------------------------|------------------------------------||
A||---------------------------|------------------------------------||
E||---------------------------|------------------------------------||
Guitarra 1

e||---------0-----------------|--------2--------------3----0-------||
B||--------2------------------|--------3--------------0----2-------||
G||-------2-------------------|--------4--------------0----2-------||
D||------2--------------------|--------4--------------0----2-------||
A||-----0---------------------|--------2--------------2----0-------||
E||----0----------------------|--------2--------------3----0-------||
Y olvidarme deeeeeee esa imagen tuya pero no me
Guitarra 2
c/distor
e||-12------------------------|------------------------------------||
B||---------------------------|------------------------------------||
G||---------------------------|------------------------------------||
D||---------------------------|------------------------------------||
A||---------------------------|------------------------------------||
E||---------------------------|------------------------------------||
Guitarra 1

e||---2-----------------------|------------------------------------||
B||---3-----------------------|------------------------------------||
G||---4-----------------------|------------------------------------||
D||---4-----------------------|------------------------------------||
A||---2-----------------------|------------------------------------||
E||---2-----------------------|------------------------------------||
atrevo

Guitarra 2
e||---------------------------|------------------------------------||
B||---------------------------|------------------------------------||
G||---------------------------|------------------------------------||
D||---------------------------|------------------------------------||
A||---------------------------|------------------------------------||
Acorde: D C Bm A G
Digitacion: 123 2 2 2 2 2 2 2 2 2 2 2
3 3 3 3 3 3 3 3 3 3 3

aqui inicas асоmрасаmiеnто con F#m para el resto de la cancion hasta el puente
Guitarra 1

e||---------2-----------------|--------3---------------------------||
B||--------2------------------|--------0---------------------------||
G||-------3-------------------|--------0---------------------------||
D||------4--------------------|--------0---------------------------||
A||-----4---------------------|--------2---------------------------||
E||----2----------------------|--------3---------------------------||
Ay veces que no dejo de sосаrте
F#m G
Guitarra 2
e||---------------------------|------------------------------------||
B||---------------------------|------------------------------------||
G||---------------------------|------------------------/3---------||
D||---------------------------|------------------------------------||
A||---------------------------|------------------------------------||
E||---------------------------|------------------------------------||
Guitarra 1

e||---------2-----------------|-----------3------------------------||
B||--------2------------------|------------0-----------------------||
G||-------3-------------------|-------------0----------------------||
D||------4--------------------|--------------0---------------------||
A||-----4---------------------|---------------2--------------------||
E||----2----------------------|----------------3-------------------||
De acariciarte hasta que ya no pueda
Guitarra 2
e||---------------------------|------------------------------------||
B||---------------------------|------------------------------------||
G||----2----------------------|------------------------------------||
D||---------------------------|------------------------------------||
A||---------------------------|------------------------------------||
E||---------------------------|------------------------------------||
Acordes: A Bm C Bm A A
Digitacion: 2 2 2 2 2 2
3 3 3 3 3 3

Guitarra 1

e||---------0-----------------|--------2-------------------2-------||
B||--------2------------------|--------3------------------3--------||
G||-------2-------------------|--------4-----------------4---------||
D||------2--------------------|--------4----------------4----------||
A||-----0---------------------|--------2---------------------------||
E||----0----------------------|--------2---------------------------||
Ay veces que quisiera morir contigo
Guitarra 2

e||------10----9--------------|------------------------------------||
B||--10----10----------------|------------------------------------||
G||---------------------------|-------/7---6---6---7---------------||
D||---------------------------|-------/7---7---7---7---------------||
A||---------------------------|------------------------------------||
E||---------------------------|------------------------------------||
Guitarra 1
(1:34)
e||---------0-----------------|--------2--------------3----0-------||
B||--------2------------------|--------3--------------0----2-------||
G||-------2-------------------|--------4--------------0----2-------||
D||------2--------------------|--------4--------------0----2-------||
A||-----0---------------------|--------2--------------2----0-------||
E||----0----------------------|--------2--------------3----0-------||
Y olvidarme deeeeeee toda materia pero no me

Guitarra 1
(1:42) (1:44)
e||---2-----------------------| ||
B||---3-----------------------| Rasgueo en Fm ||
G||---4-----------------------| ||
D||---4-----------------------| ||
A||---2-----------------------| ||
E||---2-----------------------| ||
atrevo
* cuarta secuencia de teclados
Guitarra 2

e||---------------------------|------------------------------------||
B||---------------------------|-4-3-1-3-4-3-1-3-4-3-1-3-4-3-1-3----||
G||---------------------------|------------------------------------||
D||---------------------------|------------------------------------||
A||---------------------------|------------------------------------||
E||---------------------------|------------------------------------||

Guitarra 1
e|| | ||
B|| Rasgueo en G | Rasgueo en Fm ||
G|| | ||
D|| | ||
A|| | ||
E|| | ||
Guitarra 2

e||------------------------------------||
B||-4-3-1-3-4-3-1-3-4-3-1-3-4-3-1-3----||
G||------------------------------------||
D||------------------------------------||
A||------------------------------------||
E||------------------------------------||




Ваше мнение



Капча