buterfly tempe
мы два крыла
основной ритм для электро гитары
автор mixer
d|---2-----------------------------2--|
a|---2--------3--4----------5--4---2--| два раза
e|---0--0-0---1--2---0-0-0--3--2---0--|
где бы не был я... где бы не был ты...
d------------------------|
a|----3------------------------------|
e|----1------------------------------|
где бы не был ты...
d|---2-----------------------------2--|
a|---2--------3--4----------5--4---2--| два раза
e|---0--0-0---1--2---0-0-0--3--2---0--|
и так далие.....
переход с куплета на припев:
d|---2--------------------------------|
a|---2--------3--4----------5--4---7--|
e|---0--0-0---1--2---0-0-0--3--2---5--|
припев:

d-------------------------|
a|----7-----------5-4-----------------|
e|----5-----------3-2-----------------|
...... ну , как смог!
[email protected]




Ваше мнение



Капча