Мое сердце далеко
На прицеле у нее
Мое сердце у тебя
Я за спинами людей
За тобой крадусь везде
Если хочешь расстреляй
Гитара:
4------5-------------------------|
5|-----4/54-0---1---4-5-----4/54-0-X-X-X-X-|
6|-5-5---------3---------5-5---------X-X-X-X-|
4------5-------------------------|
5|-----4/54-0---1---4-1-----4/54-0-X-X-X-X-|
6|-5-5---------3---------5-5---------X-X-X-X-|
Басс в куплете:
5|---7-----5-----7-------5-------|
6|-5---5-3---3-5---5-3-3---6-5-3-|
Бас в припеве:
(слушать внимательно)
55-----------5-|
6|-5-5/65-3---5-5/65-3---|
A Gm A
Я на кончиках ногтей напишу стихи о ней
Gm
И чем дальше тем длинней
A Gm A
И большой кривой иглой красной ниткой шерстяной
Gm
Я пришью себя к тебе
A Gm A
Я я я пришью тебя
Ты ты моя мания
Я взрываю города чтобы хлынула вода
Охладить твои ступни
Стану огненным столбом и уже не слышу боль
Для тебя мои огни
Я я я сожгу себя
Ты ты моя мания
Я я я убью тебя
Ты ты моя мания
Я я я люблю тебя
Ты ты моя мания
Концовка:
4------------------------10-10-8-|
5----1-1-------------------------|
6|-5-5-5-5-5-3-3-----3-5-5-5-5-5-3-3---------|
4--------------------------------|
5----1-1-------------------------|
6|-5-5-5-5-5-3-3-----3-5-5-5-5-5-3-3-3-3-3---|




Ваше мнение



Капча