Artist : Busted
Song : You said no / Crash and burn
Tabbd by : Aydan Watkins
INTRO & VERSES :
E :----------------------------------------------------------------------------
B :----------------------------------------------------------------------------
G :----------------------------------------------------------------------------
D :---------------------------------------------9-9-9-9-9----------------------
A :--9-x-x-9-x-x-9-9-x-x-9-x-x-9--6-x-x-6-x-x-6-7-7-7-7-7-6-2------------------
E :--7-x-x-7-x-x-7-6-x-x-6-x-x-6--4-x-x-4-x-x-4--------------------------------
CHORUS :
I think they do up and down strumming in the chorus , but i'm not sure so you
decide.I think they also play this more than once too but like i said you
decide.
E :-0-0-0-0-0-0-0-0-0-0-0-0-0-0-0-0-0-0-0-0-0-0--------------------------------
B :-0-0-0-0-0-0-0-0-0-0-0-0-0-0-0-0-0-0-0-0-0-0--------------------------------
G :-0-0-0-0-0-0-0-0-0-0-0-0-0-0-0-0-0-0-9-9-9-9--------------------------------
D :-9-9-9-9-9-9-9-9-9-9-9-9-6-6-6-6-6-6-9-9-9-9--------------------------------
A :-9-9-9-9-9-9-9-9-9-9-9-9-6-6-6-6-6-6-7-7-7-6--------------------------------
E :-7-7-7-7-7-7-6-6-6-6-6-6-4-4-4-4-4-4----------------------------------------
That all i know for now but i'll update yhis tab when i find out the rest of it.




Ваше мнение



Капча