BUSTED - Year 3000
Tabbed by: Peter Wright ([email protected])

Tuning: Standard (E A D G B E)

Yessss mate english new found glory crossed with backstreet boys

INTRO
E|---------------------------------------------------------------------------||
B|---------------------------------------------------------------------------||
G|---------------------------------------------------------------------------||
D|---------------------------------------------------------------------------||
A|---2-4h6p4---4h6p4----4h6p4------0-2---------------------------------------||
E|-----------2--------0--------0-2--------------------- ---------------------||

INTRO (cont)
E|---------------------------------------------------------------------------||
B|---------------------------------------------------------------------------||
G|---4---1--1------------------------------------------------------------------
D|---4-4-2--2-4----------------------------------------------------------------
A|---2-4-2--2-4---------------------------------------------------------------
E|-----2------2----------------------------------------------------------------

Verse
B F# E
One day when i came home at lunch time
E F#
I heard a funny noise
B F# E
Went out in to the backyard to find out
E F#
If it was one of those rowdy boys
B F# E
Stood there was my neighbour called peter
E F#
With a flux capacitor

Bridge
G# F#
He told me he built a time machine
E
Like one in a film id seen

Chorus
E B F# E
He said he went to the year 3000
E B F# E
Not much has changed but they live under water
E B F# E
And your great great great grandaughter
E B F# E
Is pretty fine (she's pretty fine)

Verse 2
(Same chords)
He took me to the future in the flux bay and i saw everything
Boy bands and another one and a another one
and another one
Triple breatsed women swimming round town
Totally naked

Bridge
Chorus

Verse 3
B F#
I took a trip to the year 3000
E F#
This song had gone multi platinum
B F#
Everybody bought our seventh album
E F#
It had outsold michael jackson
B F# E
everybody bought our seventh album seventh album seventh album

Bridge

Chorus x3

and finish

Cheers dudes there are bare ghost parts on this track, if you dont understand
that it wont really affect playing the song and if you do then you probably could
have tabbed this yourself. any way good song etc.




Ваше мнение



Капча