No-one's tabbed this song yet so here's my version of it, if you play it along with
the song then it all fits in perfectly with the exception of the last verse but
if your gonna just sing along to it then it sounds pretty good

Busted
What I Go To School For
Standard Tuning

Intro/Verses

E-------------------------------------
B-------------------------3-3-3-3-----
G-2-2-2-2-2-2-2-2-4-4-4-4-2-2-2-2-----
D-2-2-2-2-2-2-2-2-4-4-4-4-0-0-0-0-----
A-0-0-0-0-0-0-0-0-2-2-2-2-------------
E-------------------------------------


End of the Verse and End of the Chorus Parts

E-----------------------------------------
B-----------------------------------------
G-2-2-2-2-2-2-2-2-----4-4-----------------
D-2-2-2-2-2-2-2-2-----4-4-----------------
A-0-0-0-0-0-0-0-0-----2-2-----------------
E-----------------------------------------

Chorus

E-----------------------------------------------------------------
B-----------------------------------------------------------------
G-2-2-2-2-2-2-2-2-7-7-7-7-7-7-7-7---------------------------------
D-2-2-2-2-2-2-2-2-7-7-7-7-7-7-7-7-4-4-4-4-4-4-4-4-2-2-2-2-2-2-2-2-
A-0-0-0-0-0-0-0-0-5-5-5-5-5-5-5-5-4-4-4-4-4-4-4-4-2-2-2-2-2-2-2-2-
E---------------------------------2-2-2-2-2-2-2-2-0-0-0-0-0-0-0-0-

It's that twice then the End of Chorus part

Hope that's helped, any questions my e-mail is [email protected]




Ваше мнение



Капча