Tab for That Thing You Do by Busted. There's still one part I can't quite pick out,
after the repetition of the chorus.
P.M = palm mute
INTRO

(Guitar 1)
E---------------------------------------------------------0-0-
B-0--2-2--3-2-0-0-0-0--2-2--3-2-0-0-0-0--2-2--3-3-3-2--0-2---3
G--------------2-2-2-------------2-2-2------------------------
D-------------------------------------------------------------
A-------------------------------------------------------------
E-------------------------------------------------------------
(Guitar 2)
E---------------------------------------------------------------------------
B--------------------3--3-3--3-3-3-3-3---------------------3--3-3--3-3-3-3-3
G-2--2-2--2-2-2-2-2--2--2-2--2-2-2-2-2---------------------2--2-2--2-2-2-2-2
D-2--2-2--2-2-2-2-2--0--0-0--0-0-0-0-0--4--4-4--2-2-2-2-2--0--0-0--0-0-0-0-0
A-0--0-0--0-0-0-0-0---------------------4--4-4--2-2-2-2-2-------------------
E---------------------------------------2--2-2--0-0-0-0-0-------------------
VERSE
E---0-----0----0-----0-|---0-----0----0-----0--|
B-------------------3--|-------------------3---|
G--2----2-----1--------|--2----2-----1---------|
D------4-----2----0----|------4-----2----0-----|
A-0--------------------|-0---------------------|
E----------------------|-----------------------|
(When I woke up, so proud to see you lying naked next to me
And the clothes you wore the night before
Were lying on my bedroom floor and..)
E-------0-0----- |--------0-0-----|-------0-0------|-------0-0------|
B----------------|----------------|---0-0-----0-0--|---0-0-----0-0--|
G---2-2-----2-2--|---2-2-----2-2--|----------------|----------------|
D-0--------------|-0--------------|-2--------------|-2--------------|
A----------------|----------------|----------------|----------------|
E----------------|----------------|----------------|----------------|
P.M........ P.M........ P.M........ P.M........
[palm mute only the last 6 notes of every bar]
(This is how I want it to be, you know it, I want it..)
E-----------------|-----------------|
B-----------------|-----------------|
G-----------------|-----------------|
D-4-4-4-4-4-4-4-4-|-7-7-7-7-7-7-7-7-|
A-2-2-2-2-2-2-2-2-|-5-5-5-5-5-5-5-5-|
E-----------------|-----------------|
(That.....) (way.....)
CHORUS
E---------------------------------------------------------------------------
B--------------------3--3-3--3-3-3-3-3---------------------3--3-3--3-3-3-3-3
G-2--2-2--2-2-2-2-2--2--2-2--2-2-2-2-2---------------------2--2-2--2-2-2-2-2
D-2--2-2--2-2-2-2-2--0--0-0--0-0-0-0-0--4--4-4--2-2-2-2-2--0--0-0--0-0-0-0-0
A-0--0-0--0-0-0-0-0---------------------4--4-4--2-2-2-2-2-------------------
E---------------------------------------2--2-2--0-0-0-0-0-------------------
(Baby, I don't know what to say, it's like that everyday
I've never felt this way, yeah, yeah now
I just don't know what to do if I can't be with you
Girl you know it's true, I love that thing you do)
//x done by Georgina




Ваше мнение



Капча