Artist: Busted
Song: Teenage Kicks (cover!)
solo and Intro tabbed by Matt
Intro:
Guitar 1:
|----------------------|
|-7x7------------------|
|-7x7------------------|
|-7x7------------------|
|-5x5------------------|
|----------------------|
Guitar 2:
|--------5-5-----5-5-----5-5-----5-5--|
|------3-----3-3-----3-3-----3-3------|
|-------------------------------------|
|-------------------------------------|
|-------------------------------------|
|-------------------------------------|
Solo:
|------------------------|--------------------------|
|------------------------|--------------------------|
|-10-7-7/14-14-14^^--12-|--9-7-7--9-^--^--^--^-~~--|
|------------------------|--------------------------|
|------------------------|--------------------------|
|------------------------|--------------------------|
Solo x2
Outro:
|-5----5--------------------|
|---3-----3--3-3-3-3-3-3~~--|
|---------------------------|
|---------------------------|
|---------------------------|
|---------------------------|
Use some kind of effect if you can at the end.




Ваше мнение



Капча