Busted
She Wants To Be Me
>-slide
This is the Intro/solo on this song.

e------------------/-----------------------/----------------------------------|
b-4---------------/-4--------------------/-4----------------------------------|
g---6-4>7--------/---6-4>9--------------/---6-4 ------------------------------|
d----------9-7-9-/---------13-11-13----/-------10-8-10-8-10-8-8---------------|
a----------------9/-------------------14-/-------------------9----------------|
E-----------------/-----------------------/-----------------------------------|

If you use slight distortion then it gives the solo more effect.

on the 'she looks like does like sounds like me' bit you play....

e------------------------/12-10-12-10-12-13-12-10-|
b-12-10-12-10-12-10-12---/------------------------|
g---------------------11-/------------------------|

Any questions? [email protected] thanks




Ваше мнение



Капча