Artist: Busted
Song: Meet You There
Album: Present For Everyone
Inro - Guitar 1
e|--4-5-------5---|---4-5--------|----4-------|---4-5--------|
b|----5-----------|-----5--------|----5-------|-----5--------|
g|----------------|--------------|------------|--------------|
d|----------------|--------------|------------|--------------|
a|----------------|--------------|------------|--------------|
E|----------------|--------------|------------|--------------|
e|--4-5-------5---|---4-5--------|----4-------|---4----------|
b|----5-----------|-----5--------|----5-------|---5----------|
g|----------------|--------------|------------|--------------|
d|----------------|--------------|------------|--------------|
a|----------------|--------------|------------|--------------|
E|----------------|--------------|------------|--------------|
When Guitar 1 makes the solo, the guitar 2 play these chords: G Em C D
The Guitar 1 keep playing this solo
Verse 1
e|--4-5-------5---|---4-5--------|----4-------|---4-5--------|
b|----5-----------|-----5--------|----5-------|-----5--------|
g|----------------|--------------|------------|--------------|
d|----------------|--------------|------------|--------------|
a|----------------|--------------|------------|--------------|
E|----------------|--------------|------------|--------------|
e|--4-5-------5---|---4-5--------|----4-------|---4----------|
b|----5-----------|-----5--------|----5-------|---5----------|
g|----------------|--------------|------------|--------------|
d|----------------|--------------|------------|--------------|
a|----------------|--------------|------------|--------------|
E|----------------|--------------|------------|--------------|
When Guitar 1 makes the solo, the guitar 2 play these chords: G Em C D
The Guitar 1 keep playing this solo
Pre-Chorus
e|--4-------------|---4-5--------|----4-------|---4-5--------|
b|----5-----------|-----5--------|------5-----|-----5--------|
g|----------------|--------------|------------|--------------|
d|----------------|--------------|------------|--------------|
a|----------------|--------------|------------|--------------|
E|----------------|--------------|------------|--------------|
e|--4-------------|---4-5--------|----4-------|
b|----5-----------|-----5--------|------5-----|
g|----------------|--------------|------------|
d|----------------|--------------|------------|
a|----------------|--------------|------------|
E|----------------|--------------|------------|
Chorus
The same chords and solo from Verse 1
Verse 2
The same chords and solo from verse 1
Pre-Chorus
Chorus

It's easy, you just have to listen the music!




Ваше мнение



Капча