Intro
e--0----0----0----2----0----0----0----2
B--2----2----0----3----2----2----0----3
G--2----2----1----2----2----2----1----2
D--2----2----2----0----2----2----2----0
A--0----0----2----0----0----0----2----0
E------------0-------------------0-----

Verse 1

e--0----0----0----0----2----0---
B--2----2----2----2----3----0---
G--2----2----2----2----2----1--- X2
D--2----2----2----2----0----2---
A--0----0----0----0----0----2---
E---------------------------0---

e--2----0----2----0
B--2----0----3----0
G--2----1----2----1 X2
D--4----2----0----2
A--4----2----0----2
E--2----0---------0

Chorus

e--0----2----2
B--2----2----3
G--2----3----2 X2
D--2----4----0
A--0----4----0
E-------2-----

e--2----0----2----0
B--2----0----3----0
G--2----1----2----1 X2
D--4----2----0----2
A--4----2----0----2
E--2----0---------0

Inbetween bit XD

e--0----2----2----0
B--2----2----3----0
G--2----3----2----1 X2
D--2----4----0----2
A--0----4----0----2
E-------2---------0

Verse 2

e--0----0----0----0----2----0---
B--2----2----2----2----3----0---
G--2----2----2----2----2----1--- X2
D--2----2----2----2----0----2---
A--0----0----0----0----0----2---
E---------------------------0---

e--2----0----2----0
B--2----0----3----0
G--2----1----2----1 X2
D--4----2----0----2
A--4----2----0----2
E--2----0---------0

Chorus

e--0----2----2
B--2----2----3
G--2----3----2 X2
D--2----4----0
A--0----4----0
E-------2-----

e--2----0----2----0
B--2----0----3----0
G--2----1----2----1 X2
D--4----2----0----2
A--4----2----0----2
E--2----0---------0

Bridge

e--2----0----2----2
B--2----0----3----3
G--2----1----2----2
D--4----2----0----0
A--4----2----0----0
E--2----0----------

e--2----0----2----2----2----0----2
B--2----0----3----3----2----2----3
G--2----1----2----2----3----2----2
D--4----2----0----0----4----2----0
A--4----2----0----0----4----0----0
E--2----0--------------2----------

Chorus

e--0----2----2
B--2----2----3
G--2----3----2 X2
D--2----4----0
A--0----4----0
E-------2-----

e--2----0----2----0
B--2----0----3----0
G--2----1----2----1 X2
D--4----2----0----2
A--4----2----0----2
E--2----0---------0 Repeat Till End




Ваше мнение



Капча