Song – Can’t Break Thru
Artist – Busted
Album – A Present for Everyone
Verse – E Emaj7 A
E Emaj7 A
B C#m A E
B C#m A
Chorus – E B F#m A
E B F#m A
Verse – E Emaj7 A
E Emaj7 A
B C#m A E
B C#m A
Chorus – E B F#m A
E B F#m A
Solo (chords) – B C#m A E
B C#m A
E---------------------------------------------------------------------------------17---17---17-
B------------------------------------------------------------------------------------17---17---
G-11-11---------------------------------------------11-11----------------18--------------------
D--------13-14-16-13-14-16------14---------14---------13-14---16-18---18-----------------------
A---------------------------------12-----12-11---------------------14--------------------------
E----------------------------------------------------------------------------------------------
E-------19------19---------------------------------------------------------------
B---17-----17-----17---17--------------------------------------------------------
G--------------------------------------------------------------------------------
D--------------------------------------------------------------------------------
A--------------------------------------------------------------------------------
E--------------------------------------------------------------------------------

Chorus – E B F#m A
E B F#m A
Ok, the solo is in there...I know it’s not exactly correct, but I’m sure u can
correct it. Any questions etc, email me – [email protected]




Ваше мнение



Капча