Hey, there isnt a proper tab for the intro of this song and its a really good picking
so Im putting it on. This was BUsted at their best in pop. Listen to the song for the
I didnt include that in the tab. Im sure this is 100% correct. Enjoy.
MAIN PICKING PART:
e|------------0--------------------------------0---------------------------|
B|-----------------2--------------------------------0----------------------|
G|-------2---------------2----------------1--------------1-----------------|
D|----------------------------2--------------------------------2-----------|
A|---0---------------------------------------------------------------------|
E|----------------------------------0--------------------------------------|
A E
e|------------2------------------------------------------------------------|
B|-----------------2-------------------------------------------------------|
G|-------2-------------2---------------------------------------------------|
D|--------------------------4----------------------------------------------|
A|-------------------------------------------------------------------------|
E|--2-----------------------------4--------5-------------------------------|
Fsharpm
SOLO:
e|----5-----7-----7-----5----4----4----5-----------------------------------|
B|-----------------------------------------3---3----2----3----5----3----2--|
G|-------------------------------------------------------------------------|
D|-------------------------------------------------------------------------|
A|-------------------------------------------------------------------------|
E|-------------------------------------------------------------------------|




Ваше мнение



Капча