---------------------------------------------------------------------
Air Hostess - Busted
---------------------------------------------------------------------
Tabbed by: Matt Shaw
Email: [email protected]
I found the chord versions of this song a bit hard to play with distortion,
so this is the full song in bar chords and picks.
Intro - Guitar 1
e|------------------------------------------------------------------|
B|------------------------------------------------------------------|
G|------------------------------------------------------------------|
D|-0-0-2-2-0-0-2-2-0-0-2-0-2/4-2-0----------------------------------|
A|------------------------------------------------------------------|
E|------------------------------------------------------------------|
This rhythm is first done on bass, but then played on guitar with other intro
Intro - Guitar 2 ЎV ЎҐLets go, yeah, alrightЎKЎ¦
e|---------------------------------------------------------------------|
B|---------------------------------------------------------------------|
G|-7-------------------------------------------------------------------|
D|-7----7----2----5----5-----------------------------------------------|
A|-5----7ЎX---2----5----5----------------------------------------------|
E|------5----0----3----3-----------------------------------------------|
Listen to track to figure out how many strums and rhythm
Verse - Guitar 1 - ЎҐWalking through the terminalЎKЎ¦
e|-----12-----------------12----------------------------------------|
B|------------------------------------------------------------------|
G|------------------------------------------------------------------|
D|------------------------------------------------------------------|
A|------------------------------------------------------------------|
E|------------------------------------------------------------------|
Let each note ring or play 2/3 times softly for effect
Verse ЎV Guitar 2 - ЎҐWalking through the terminalЎKЎ¦
e|---------------------------------------------------------------------|
B|---------------------------------------------------------------------|
G|-7-------------------------------------------------------------------|
D|-7--7--2--5----------------------------------------------------------|
A|-5--7--2--5----------------------------------------------------------|
E|----5--0ЎX-3---------------------------------------------------------|
Palm mute these in tune to song
Pre-Chorus - ЎҐThat uniform youЎ¦re wearingЎKЎ¦
e|---------------------------------------------------------------------|
B|-----------------on second time play---------------------------------|
G|-------7-------------------------------------------------------------|
D|-2--5--7--7---------2--4ЎX-7-----------------------------------------|
A|-2--5--5--7---------2--4ЎX-7-




Ваше мнение



Капча