Deconstructed.org guitar tabs

Web: http://www.deconstructed.org/
E-mail: [email protected]
Please send any questions / corrections / comments / requests!

These tabs are the way I play the songs. Many are adapted from the “official tab books” and other tabs I find on the Internet. Any song can be played several different ways; this is just how I play it.

One other note: I am not a lead guitarist. Many of the solos are not
Tabbed out, or when I include solos they are from other sources. So
Please keep that in mind when you read my tabs.

ALWAYS LISTEN TO THE CD FOR TIMING! LOOK AT MY CHORD CHANGES YOU CAN HEAR
THEM ON THE CD.

Have a question? Feel free to e-mail me.

-------------------------------------------------------------------------

Song: Warm Machine
Band: Bush

-------------------------------------------------------------------------

Chords Used:

A [barre] F [barre] G [barre]

E|--5---------1----------3---------------------------------------------|
B|--5---------1----------3---------------------------------------------|
G|--6---------2----------4---------------------------------------------|
D|--7---------3----------5---------------------------------------------|
A|--7---------3----------5---------------------------------------------|
E|--5---------1----------3---------------------------------------------|

Intro: [played with distortion, or some cool effect]
Listen to the CD, this repeats several times, and you can hear
Gavin start to pick the intro again, but stops as the lyrics start.
Then he starts again... etc.

E|------------0-[let ring out]------------------------------------------|
B|--6---6-----5--5--5--5--5-->>slide to---10---10---8--8--8--8--8-------|
G|----------------------------------------------------------------------|
D|----------------------------------------------------------------------|
A|----------------------------------------------------------------------|
E|----------------------------------------------------------------------|

[Verse 1]
I memorize the basics
Making strange faces
Tread slowly for I know; there's a thousand miles to go
Without blinking

I gravitate space wards
Find a home for my head
From my basement
No darkness ever left

[Chorus]
A F




Ваше мнение



Капча