bush, warm machine.
Tabbed by tony, [email protected]

Person: Kristopher
Song: Warm Machine
Artist: Bush
tab:
Intro/verse (Rhy.1)0:00
Nigel's part
e---0-------0-0------0----0--0--0----0--0-
B-----------------------------------------
G--10------109------9----9--9/14---1412-
D-----------------------------------------
A---8-------87------7----7--7/12---1210-
E-----------------------------------------

*(the zeros on the e string make the slight dissonant
sound on the first chord. let it ring.)
Gavin's part
F E A G
e-----------------------------------------------------
B-----------------------------------------------------
G--2-------21-------1-----1--1/6---64---------------
D--3-------32-------2-----2--2/7---75---------------
A--3-------32-------2-----2--2/7---75---------------
E--1-------1-------0-----0--0/5---53---------------
there is also a little fill at about 0:13
done by what i think is a violin, here is the diddly on hi e.
e--------10~~~~~~~8~~~~~~~~~~~~~~~~~~~~~~~~~~~~-------
verse 0:20
i memorize the basics *
e------------------------------0-------0-0------0---(0)-
B-------------------------------------------------------
G-----------------------------10------109------9---(9)-
D-------------------------------------------------------
A------------------------------8-------87------7---(7)-
E-------------------------------------------------------
*just a held note, or ghost note

making strange faces
e-------------0-------0-0------0----0--0--0----0--0-
B---------------------------------------------------
G------------10------109------9----9--9/14---1412-
D---------------------------------------------------
A-------------8-------87------7----7--7/12---1210-
E---------------------------------------------------
repeat verse rhythm
tread slowly for i know
there's a thousand miles to go
without blinking
gravitate spacewards
find a home for the head
from my basement
no darkness ever left
CHORUS 1:00
A F G
this is the night this is the sound
e------------------------------------------------------
B------------------------------------------------------
G------6--6----X---X------2--2----X---X----4--4---X--X-
D------7--7----X---X------3--3----X---X----5--5---X--X-
A------7--7----X---X------3--3----X---X----5--5---X--X-
E------5--5----X---X------1--1----X---X----3--3---X--X- here
comes a warm machine
e------------------------------------------------------
B------------------------------------------------------
G-----2--2----6--6----X---X------2--2----X---X----4--4-
D-----3--3----7--7----X---X------3--3----X---X----5--5-
A-----3--3----7--7----X---X------3--3----X---X----5--5-
E-----1--1----5--5----X---X------1--1----X---X----3--3-
F A F G
such a warm machine
e-----------------------------------------------------------
B-----------------------------------------------------------
G--2--2-----6--6----X---X------2--2----X---X----4--4--4--4-
D--3--3-----7--7----X---X------3--3----X---X----5--5--5--5-
A--3--3-----7--7----X---X------3--3----X---X----5--5--5--5-
E--1--1-----5--5----X---X------1--1----X---X----3--3--3--3-
G F E
feel warm
e---------------------------------------------------
B---------------------------------------------------
G--4--4--2-1----------------------------------------
D--5--5--3-2----------------------------------------
A--5--5--3-2----------------------------------------
E--3--3--1-0----------------------------------------
intro riff
verse 1:33
some days are playful
making play faces
but we will not let it through
the darkness and the sense
of being born to lose
CHORUS 2:00 then a second chorus:
this is the life this is the ground
here comes the warm machine
such a war machine
BRIDGE 2:41 im not sure how the chords are structured but i know the
chords
E F
if we never know we can only feel i'll take the help i'll take
a slice
warm alright now cos i feel alright
e----------------------------------------------------------
B-----------------------------------------------------------
G----9---------------------------10-------------------------
D----9---------------------------10-------------------------
A---/7----------------------------8-------------------------
E-----------------------------------------------------------
INTRO RIFF 2:55 then
a little solo lead thingy
e-----12~~10~~~12~~~/15~~~~----12~~10~~~12~~~/17^^^^^^^^^-
i memorize the basics
the basics
the basics
CHORUS
end on a orgy of the a chord




Ваше мнение



Капча