Bush - The People That We Love
By Harvester Of Sorrow ([email protected])
[email protected]--8--------|-
-|4---4----4----4----4----4----4----4----5----5----5---5---5---5---5--------|-
-|--------------------------------------------------------------------------|-
-|--------------------------------------------------------------------------|-
-|--------------------------------------------------------------------------|-
-|--------------------------------------------------------------------------|-
Guitar 1^ Intro
-|--------------------------------------------------------------------------|-
-|--------------------------------------------------------------------------|-
-|--------------------------------------------------------------------------|-
-|7--7--7----2--2--2--2----10--10--10--10----7----5----7--7-----------------|-
-|7--7--7----2--2--2--2----10--10--10--10----7----5----7--7-----------------|-
-|7--7--7----2--2--2--2----10--10--10--10----7----5----7--7-----------------|-
Guitar 2^
-|--------------------------------------------------------------------------|-
-|--------------------------------------------------------------------------|-
-|--------------------------------------------------------------------------|-
-|7--7--7----2--2--2--2----10--10--10--10----7----5----7--7-----------------|-
-|7--7--7----2--2--2--2----10--10--10--10----7----5----7--7-----------------|-
-|7--7--7----2--2--2--2----10--10--10--10----7----5----7--7-----------------|-
Verse guitar 2 (Palm muted)
-|5--5--5--5--5--5--5--5----5--5--5--5--5--5--5--5--------------------------|-
-|4--4--4--4--4--4--4--4----5--5--5--5--5--5--5--5--------------------------|-
-|--------------------------------------------------------------------------|-
-|--------------------------------------------------------------------------|-
-|--------------------------------------------------------------------------|-
-|--------------------------------------------------------------------------|-
Guitar 1 after guitar 2
-|0--0--0--0--0--0--0--0----0--0--0--0--0--0--0--0--------------------------|-
-|4--4--4--4--4--4--4--4----5--5--5--5--5--5--5--5--------------------------|-
-|--------------------------------------------------------------------------|-
-|--------------------------------------------------------------------------|-
-|--------------------------------------------------------------------------|-
-|--------------------------------------------------------------------------|-
After the verse (guitar 1)
-|--------------------------------------------------------------------------|-
-|--------------------------------------------------------------------------|-
-|--------------------------------------------------------------------------|-
-|7--7--7----14--14--14--14----10--10--10--10----7----5----7--7-------------|-
-|7--7--7----14--14--14--14----10--10--10--10----7----5----7--7-------------|-
-|7--7--7----14--14--14--14----10--10--10--10----7----5----7--7-------------|-
After verse (guitar 2)
-|0--0--0--0--0--0--0--0----0--0--0--0--0--0--0--0--------------------------|-
-|4--4--4--4--4--4--4--4----5--5--5--5--5--5--5--5--------------------------|-
-|--------------------------------------------------------------------------|-
-|--------------------------------------------------------------------------|-
-|--------------------------------------------------------------------------|-
-|--------------------------------------------------------------------------|-
Chorus guitar 1
-|--------------------------------------------------------------------------|-
-|--------------------------------------------------------------------------|-
-|--------------------------------------------------------------------------|-
-|7--7--7----14--14--14--14----10--10--10--10----7----5----7--7-------------|-
-|7--7--7----14--14--14--14----10--10--10--10----7----5----7--7-------------|-
-|7--7--7----14--14--14--14----10--10--10--10----7----5----7--7-------------|-
Chorus guitar 2
-|--------------------------------------------------------------------------|-
-|--------------------------------------------------------------------------|-
-|--------------------------------------------------------------------------|-
-|3--3--3--3--3--3--3--3--3--3--3--3--3--3--3--3----------------------------|-
-|3--3--3--3--3--3--3--3--3--3--3--3--3--3--3--3----------------------------|-
-|3--3--3--3--3--3--3--3--3--3--3--3--3--3--3--3----------------------------|-
-|--------------------------------------------------------------------------|-
-|--------------------------------------------------------------------------|-
-|--------------------------------------------------------------------------|-
-|7--7--7--7--7--7--7--7--7--7--7--7--7--7--7--7----------------------------|-
-|7--7--7--7--7--7--7--7--7--7--7--7--7--7--7--7----------------------------|-
-|7--7--7--7--7--7--7--7--7--7--7--7--7--7--7--7----------------------------|-
-|--------------------------------------------------------------------------|-
-|--------------------------------------------------------------------------|-
-|--------------------------------------------------------------------------|-
-|10--10--10--10--10--10----9--9--9--9--9--9--9--9--------------------------|-
-|10--10--10--10--10--10----9--9--9--9--9--9--9--9--------------------------|-
-|10--10--10--10--10--10----9--9--9--9--9--9--9--9--------------------------|-
Guitar 2 (all three)after chorus
-|--------------------------------------------------------------------------|-
-|--------------------------------------------------------------------------|-
-|--------------------------------------------------------------------------|-
-|7----2----9----7----------------------------------------------------------|-
-|7----2----9----7----------------------------------------------------------|-
-|7----2----9----7----------------------------------------------------------|-
-|--------------------------------------------------------------------------|-
-|--------------------------------------------------------------------------|-
-|--------------------------------------------------------------------------|-
-|7----2----9---------------------------------------------------------------|-
-|7----2----9---------------------------------------------------------------|-
-|7----2----9---------------------------------------------------------------|-




Ваше мнение



Капча