Bush
The Chemicals Between Us
The Science of Things (Nov 99)
from woodstock
tabbed by [email protected]
b-bend
r-release
h-hammer-on
standard tuning
Gavin
--------------------------------------------------------
--------------------------------------------------------
----4--4-----------7--7---------------------------------
-------------------------------------------------------- Repeat for about 12
times
----2--2-----------5--5---------------------------------
--------------------------------------------------------
Nigel
--------------------------------------------------------
--------------------------------------------------------
-----------------------8b9r8 let ring------------------- every other time
--------------------------------------------------------
--------------------------------------------------------
--------------------------------------------------------
NOTE********
Repeat throughout verses but instead of playing Gavin's
chords twice, strum them each about 8 times
Chorus
Gavin
--------------------------------3-3-3-3---------------------
--------------------------------3-3-3-3---------------------
---14-14-14-14-14-14---5-5-5-5--0-0-0-0--14-14-14-14--------
---14-14-14-14-14-14---5-5-5-5--0-0-0-0--14-14-14-14--------
---12-12-12-12-12-12---3-3-3-3--2-2-2-2--12-12-12-12--------
--------------------------------3-3-3-3---------------------
Nigel
------------------------------------------------------------
--10-10-10-10-10-10---13-13-13-13--8-8-8-8-10-10-10-10------
---9--9--9--9--9--9---12-12-12-12--7-7-7-7--9--9--9--9------
---7--7--7--7--7--7---10-10-10-10--5-5-5-5--7--7--7--7------
------------------------------------------------------------
------------------------------------------------------------
Nigel (fill on 2nd last chorus)
--------------------------------
---8b9h10---8h10--10-10---------- about 8 times
--------------------------------
--------------------------------
--------------------------------
--------------------------------
Gavin's bridge (one time)
in middle of song
--------------------------------------------------
--------------------------------------------------
-------14---------5----------------------14-------
-----14--14------5---5-------5--------14----14---- basically just random
picking
---12------12--3------3----5---5---12---------12--
-------------------------3------3-----------------




Ваше мнение



Капча