From [email protected]:
Song: Testosterone
Transcribed by: | Michael R. Oliver |
-------------------

Music verified by ********Jaclyn Julia Salomone*********
(That means, I played it for her and she said it souned fine.)

Print it out on NOTEPAD for the tabliture to come out correct

This my 5th song that i transribed (or attempted to transcribe) off the
Sixteen Stone album. This song is yet another great song written
By Gavin Rossdale, this song really isn't that hard. If you have
Any information about Bush touring the New York City area, please
Please e-mail me. -=-=-=-=-=-here is the song=-=-=-=-=-=-=-

Guitar parts:
-------------
These are all the chords used in this song (i think)
C |-----| D |-----| F |------| F# |-----| G |-----| A |-----|
|-----| |-----| |------| |-----| |-----| |-----|
|--5--| |--7--| |--10--| |-----| |-----| |-----|
|--5--| |--7--| |--10--| |--4--| |--5--| |--7--|
|--3--| |--5--| |--8---| |--4--| |--5--| |--7--|
|-----| |-----| |------| |--2--| |--3--| |--5--|

G# |-----| F |-----|
|-----| |-----|
|-----| |--2--|
|--6--| |--3--|
|--6--| |--3--|
|--4--| |--1--|

Part A (verse):
---------------
E |-----------------------------------------|
B |-----------------------------------------|
G |--5---7---10--7---5--5--7----------------|
D |--5---7---10--7---5--5--7--4---4-4-4--5--|
A |--3---5---8---5---3--3--5--4---4-4-4--5--|
E |---------------------------2---2-2-2--3--|
The verse progression goes C-D-F-D-C-D-F#-G

Sometimes, the guitar stops playing and the bass plays the verse
Like this:
G |-----------------------------------------|
D |-----------------------------------------|




Ваше мнение



Капча