BAND: Bush
SONG: Testosterone
CD: Sixteen Stone

Intro:

----------------|
----------------|
-5-7-10-7-5/7-7-|
-5-7-10-7-5/7-7-|
-3-5-8--5-3/5-5-|
----------------|

Verses:

1st part: Bass plays the roots to the intro rhythm.
2nd part:

Chorus:

Part 1:

-----------------------------------|
-----------------------------------|
-7---------------------------7/10--|
-7---------------------------7/10--|
-5---------------------------5/8---|
-----------------------------------|
Got a big 'ol gun Got a big 'ol gun...

Part 2:

-------------|-----------------|-------------|
-------------|-----------------|-------------|
-7-7-7-5-----|-----------------|-7-7-7-5-----|
-7-7-7-5-5-3-|-----------------|-7-7-7-5-5-3-|
-5-5-5-3-5-3-|-----------------|-5-5-5-3-5-3-|
---------3-1-|-----------------|---------3-1-|
.............Im real full of it...............
====




Ваше мнение



Капча