--------------------------------------------------------
Bush - Swallowed
Album: Razorblade Suitcase
Tabbed by DTMax - [email protected]
--------------------------------------------------------
INTRO
e|----------------------------------|
B|----------------------------------|
G|-----7----7----6--11------11------|
D|--7--7--7---7--6--11--11------11--|
A|--7--5---------4---9--------------|
E|--5-------------------------------|
CHORUS Guitar 1
e|----------------------------------------|
B|----------------------------------------|
G|-----------77777777-66666666-99999999---|
D|--77777777-77777777-66666666-99999999---|
A|--77777777-55555555-44444444-77777777---|
E|--55555555------------------------------|
CHORUS Guitar 2
e|--------------------------------------------------|
B|--------------------------------------------------|
G|-14-14-14-14-14-14-14-14--13-13-13-13-13-13-13-13-|
D|--------------------------------------------------|
A|--------------------------------------------------|
E|--------------------------------------------------|
e|--------------------------------------------------------|
B|---------15-15----------15----------12-12---------12----|
G|---13>14-------14----14----14-10>11-------11---11----11-|
D|-------------------12------------------------9----------|
A|--------------------------------------------------------|
E|--------------------------------------------------------|
CHORUS END Guitar 1
e|-------------------|
B|-------------------|
G|----------66666666-|
D|-77777777-66666666-|
A|-77777777-44444444-|
E|-55555555----------|
CHORUS END Guitar 2
e|-------------------------------------------------------|
B|-------------------------------------------------------|
G|-14-14-14-14-13-13-13-13--13-13-11-11--10-10-10-10-----|
D|-------------------------------------------------------|
A|-------------------------------------------------------|
E|-------------------------------------------------------|
PRE-SOLO BEND
e|--------------------------------------------------------|
B|---------------------------------------^--^---^---------|
G|-10-10-10-10-10-10-10-10-10^-10^-10^-10^10^-10^-10^-10^-|
D|--------------------------------------------------------|
A|--------------------------------------------------------|
E|--------------------------------------------------------|
SOLO 1
e|--------------------------------------------|
B|--------------------------------------------|
G|------------------9-10----10----10----10----|
D|---------------13------13----13----13----13-|
A|---12-12-12-12------------------------------|
E|--------------------------------------------|
SOLO 2
e|-----------------------------------------------|
B|----------------------------13-13-13//17-17-17-|
G|---14-14-14-14-13-13-13-13---------------------|
D|-----------------------------------------------|
A|-----------------------------------------------|
E|-----------------------------------------------|
BREAKDOWN
---------
Verse x4
Chorus x2
Chorus End x2
Verse x2 (only play the first two bars and not as chords, only the notes)
Chorus x2
Chorus End x3
Pre-Solo Bend
Solo1 x2
Solo2 x2
Intro x4
Chorus x2
Chorus End x4
Solo1 x2
Chorus End x3
Solo2 (hold last note and bend)
Chords Overun
Bass Overuns




Ваше мнение



Капча