BAND: Bush/Elvis
SONG: Suspicious Minds
CD: Unreleased

Intro:

-------------------------------|
-------------------------------|
-7-7-X-7-7-7-X-7-7-7-----------|
-7-7-X-7-7-7-X-7-7-7-----------|
-5-5-X-5-5-5-X-5-5-5---0-------|
---------------------0---0-3b4-|

Verse:

Switch around with these chords:

-------|
-------|
-7-----|
-7--5--|
-5--5--|
----3--|

Chorus:

Switch around with these chords:

-------------|
-------------|
-------------|
-7--9--4--5--|
-7--9--4--5--|
-5--7--2--3--|

====




Ваше мнение



Капча