#----------------------------------PLEASE NOTE--------------------------------#
#This file is the author's own work and represents their interpretation of the#
#song. You may only use this file for private study, scholarship, or research.#
#-----------------------------------------------------------------------------#
#-- File created with Instab - http://www.pconline.com/~smcarey/instab.html --#
#-----------------------------------------------------------------------------#
Author/Artist: Bush
Title: straight no chaser
Transcribed by: Saverain
Email: [email protected]
This is what it sounds like to me and if you don't
like it
E-mail me
you'll have to find the lyrics somewhere else sorry.
I are not to good words
I use my index and ring finger for the E chord in
begining
v strum down
^ strum up
-----------------------------|-----------------------------|------------------|
-----------------0-----------|-------0---------0-----------|------------------|
----1------------6-----6-----|-----------------6-----6-----|------------------|
-2--2--2-2-2/6-6---6-6---6---|-2--2----2-2/6-6---6-6---6---|------------------|
-2--2--2-2-2/4-4-----------0-|-2--2----2-2/4-4-------------|------------------|
-0--0----------------------0-|-0--0----------------------0-|------------------|
v v v v v v v ^ v v ^ v ^ verse play softly
-|----------------------------------------------------------------------------|
-|----------------------------------------------------------------------------|
-|------------------------------------4----4---------7----7-------------------|
-|-7-----7--------7-----7----7--4-----4--4-4---7-----7--7-7-------------------|
-|-7-----7--------7-----7--7-7--2-2-2-2--2-2-2-5-5-5-5--5-5-5-----------------|
-|-5-5-5-5--5-5-5-5-5-5-5--5-5------------------------------------------------|
v ^ v v ^ v ^ v ^ v v ^ v v ^ v ^ ^ v ^ v ^ v v ^ v ^
------------------------------------------------------------------------------|
------------------------------------------------------------------------------|
-----------------------------------4----4--------7----7-----------------------|
-7-----7------------------7--4-----4--4-4/-7-----7--7-7-----------------------|
-7-----7-------7-----7--7-7--2-2-2-2--2-2/-5-5-5-5--5-5--5--------------------|
-5-5-5-5-5-5-5-5-5-5-5--5-5---------------------------------------------------|
same rythm
------------------------------------------------------------------------------|
------------------------------------------------------------------------------|
------------------------------------------------------------------------------|
-9-----9---9---12---------12-9-----9---9---12---------------------------------|
-9-----9-9-9-9/12--12--12-12-9-----9-9-9-9/12---------------------------------|
-7-7-7-7-7-7-7/10--10--10-10-7-7-7-7-7-7-7/10-10-10--10-10-10-----------------|
v ^ v v ^ v ^ v v ^ v v ^ v ^ v con
-------------------------|---------------------------|------------------------|
-------------------------|---------------0-----------|------------------------|
-------------------------|-------1-------6-----6-----|------------------------|
----------------------7-|---------2/6-6---6-6---6---|------------------------|
-------------------12----|-2--2-----/4-4-----------0-|------------------------|
-10-10-10-10-10-10-10----|-0-----------------------0-|------------------------|
-|-----|----------|-----------------------------------------------------------|
-|-----|----------|-----------------------------------------------------------|
-|-----|----------|-----------------------------------------------------------|
-|-----|----------|---------9--------12---------------------------------------|
-|-----|----------|-9-9-9-9-9-9-9-9-/12--12-12-12-12-12-12-------------------|
-|-----|----------|-7-7-7-7-7-7-7-7-/10--10-10-10-10-10-10-------------------|
verse chorus
------------------------------------------------------------------------------|
------------------------------------------------------------------------------|
------------------------------------------------------------------------------|
------------------12----------------------------------------------------------|
-9-9-9-9-9-9-9-9/-12-12-12-12-12-12-12-12-12-12-12-12-12-12-12---------------|
-7-7-7-7-7-7-7-7/-10-10-10-10-10-10-10-10-10-10-10-10-10-10-10---------------|
-|------|-----------|---------------------------------------------------------|
-|------|-----------|--------0---------0--------------------------------------|
-|------|-----------|------------------6-----6---6-----6---6------------------|
-|------|-----------|--2--2----2-2/6-6---6-6---6---6-6---6--------------------|
-|------|-----------|--2--2----2-2/4-4----------------------------------------|
-|------|-----------|--0--0---------------------------------------------------|
interlude verse outro
-------------------------|----------------------------------------------------|
-------------------------|----------------------------------------------------|
-----6---6---6---6-----6-|----------------------------------------------------|
-6-6---6---6---6---6-6-6-|----------------------------------------------------|
-----------------------4-|----------------------------------------------------|
-------------------------|----------------------------------------------------|




Ваше мнение



Капча