Bush - Solutions
Tabbed By: Marty
EMail: [email protected]
Two guitars on these songs. G1 is Gavin. G2 is Nigel.
Sometimes, their may be a 3rd guitar in these song, and
I will note it as G3. also G3 may be electronics (like sasha plays)
translated to guitar. Listen to the recording for strumming patterns
and how many times each chord is played. Most of the time it’s only
approximate here.
Solutions:
Intro/verse G2
e---------------------------------------------------------------------------
B---------------------------------------------------------------------------
G-------9-----------9-----------9-----------9------------9-------------9----
D-9-11---11---9-11---11---9-11---11---9-11---11---9-11----11---9-11------11-
A---------------------------------------------------------------------------
E---------------------------------------------------------------------------
Make sure you barr the ninth fret so the G string rings.
Pre-chorus #1 G1
e------------------------------------------------------------
B------------------------------------------------------------
G-------------7--7-7-7-7-8-8-8-8-4-4-4-4-2-2-2-2-------------
D-4--4-4-4-4--7--7-7-7-7-8-8-8-8-4-4-4-4-2-2-2-2-5-5-5-5-4---
A-4--4-4-4-4--5--5-5-5-5-6-6-6-6-2-2-2-2-0-0-0-0-5-5-5-5-4---
E-2--2-2-2-2-------------------------------------3-3-3-3-2---
Only approximately how many times you play chords
Pre-chorus #1 G2
e----------------------------------------------------------------------
B----------------------------------------------------------------------
G-------------7--7-7-7-7-----------------------------------------------
D-4--4-4-4-4--7--7-7-7-7-13--13-13--9--9-9--7--7-7--5--5-5--4----------
A-4--4-4-4-4--5--5-5-5-5--x---x--x--x--x-x--x--x-x--x--x-x--x----------
E-2--2-2-2-2-------------11--11-11--7--7-7--5--5-5--3--3-3--2----------
Chorus G1 & G2
e-------------------------------------------------------------------------
B-------------------------------------------------------------------------
G---------6-6-6/9-9-9---------6-6-6/9-9-9---------6-6-6/9-9-9-------------
D-4---4-4-6-6-6/9-9-9-4---4-4-6-6-6/9-9-9-4---4-4-6-6-6/9-9-9-------------
A-4---4-4-4-4-4/7-7-7-4---4-4-4-4-4/7-7-7-4---4-4-4-4-4/7-7-7-------------
E-2---2-2-------------2---2-2-------------2---2-2-------------------------
Bridge G1
e------------------------------------------------------------------------------
B------------------------------------------------------------------------------
G-4--4-4----------------------------------4--4-4-------------------------------
D-4--4-4-------------4--4-4---------------4--4-4--------------4--4-4-----------
A-2--2-2-2-3-2-0-2---4--4-4---------------2--2-2-2-3-2-0-2----4--4-4-----------
E--------------------2--2-2-2-3-2-0-2-------------------------2--2-2-2-3-2-0-2-
Bridge G2:
e--------------------------------15h16-16-------------16p15h16-----------------15h16-16---
B-----------------------------------------------------------------------------------------
G-11/14b-14v-14v-14v-14v-14v(hold)--------14v-14v(hold)--------14v-14-14v(hold)-----------
D-----------------------------------------------------------------------------------------
A-----------------------------------------------------------------------------------------
E-----------------------------------------------------------------------------------------
(3:15)///////////////////////////(3:18)
e--------------15h16-16b-16-16b-15h16-16b-------------------
B-12b(slow bend upwards)--------------------12b(hold)-------
G--------------------------------------------------------11-
D-----------------------------------------------------------
A-----------------------------------------------------------
E-----------------------------------------------------------
(3:23)/////////////////////////////////////////////////(3:26)
In parentheses is the time on the studio recording of the solo.
Hopefully that will help you keep time, because it’s difficult to read a tabbed solo.
Pre-Chorus #2 G1 (this is the last pre-chorus, right after the bridge “she makes me see”):
e-----------------------------------------------------------------------
B-----------------------------------------------------------------------
G-------------7--7-7-7-7-8-8-8-8-4-4-4-4-7-7-7-7-7-7-7-9-9-9-9-9-9-9----
D-4--4-4-4-4--7--7-7-7-7-8-8-8-8-4-4-4-4-7-7-7-7-7-7-7-9-9-9-9-9-9-9----
A-4--4-4-4-4--5--5-5-5-5-6-6-6-6-2-2-2-2-5-5-5-5-5-5-5-7-7-7-7-7-7-7----
E-2--2-2-2-2------------------------------------------------------------
Pre-chorus #2 G2:
e------------------------------------------------------------------------
B------------------------------------------------------------------------
G-------------7--7-7-7-7---------------------7-7-7-7-7-7-7-9-9-9-9-9-9-9-
D-4--4-4-4-4--7--7-7-7-7--13--13-13--9--9-9--7-7-7-7-7-7-7-9-9-9-9-9-9-9-
A-4--4-4-4-4--5--5-5-5-5--x---x---x--x--x-x--5-5-5-5-5-5-5-7-7-7-7-7-7-7-
E-2--2-2-2-2--------------11--11-11--7--7-7------------------------------
Outro G2:
e-------------------------------------------------------------------------------
B-------------------------------------------------------------------------------
G-------------------------------------------------------------------------------
D-16-16-16-16-16-16-16-16-16-16-16-16-16-16-16-16-------------------------------
A-------------------------------------------------------16-16-16-16-16-16-16----
E-------------------------------------------------------------------------------
(3:55)
e---------------------------------------------------------------------------
B---------------------------------------------------------------------------
G-------------16--16-16-16-16-18-18-18-18-18-17h18-17h18-17h18-17h18-17h18--
D---------------------------------------------------------------------------
A16-16 (fade)---------------------------------------------------------------
E---------------------------------------------------------------------------
//////////////(4:03)////////////////////////////////// (4:07)
e------------------------------------------------------
B------------------------------------------------------
G-17h8-17p16-17p16-17p16-17p16-17p16-------------------
D--------------------------------------------------14b-
A------------------------------------------------------
E------------------------------------------------------
(4:11)////////////////////////////////////////////////// (4:14)
Tabed by Wes
Submitted by Marty [email protected]




Ваше мнение



Капча