This is my first tab so bare with me. I saw them playing on Craig Kilbourne and it's the right way. Trust me.

(/=strung up, =slide)
rpt 4 times
E---------------------------8--------
B-10-----10-----------10-10---10-10--
G----8-8----8-8-9-9-9----------------
D------------------------------------
A------------------------------------
E------------------------------------
then repeat 2 times
E------------------------------------
B------------------------------------
G------------------------------------
D------------------------------------
A------------------------------------
E-5-5-4-4-4-4-7-7-7-7-9-9-9-9-/9----




Ваше мнение



Капча