Bush - Old (On X-games CD and on another CD called sixteen i think)

this sounds just about right when i play it
[standard tuning (EADG)]

This is played basically through the whole song
G------------------------------
D------------------------------
A------88----------------------
E---777--88-66-----------------

At 2:16 in the song (right after everything stops besides the guitar it goes)
G------------------------------
D------------------------------
A------88----------------------
E---777--88-999----------------

At 2:36 the song goes
G------------------------------
D------------------------------
A------88----------------------
E---777--8~--------------------

At 2:44
G------------------------------
D------------------------------
A------88---7~-----------------
E---777--88--------------------

~= let ring

tabbed by me..smee..




Ваше мнение



Капча