Date: Fri, 5 Dec 1997 18:55:18 EST
From: N1Nana9568
Subject: Tab: Mouth (Remix) by Bush

!!!Warning!!! This is the REMIX version of Mouth

Band: Bush
Song: Mouth (Remix)
Album: Deconstructed
Tabbed by: Jesse Nepivoda

Intro (synth for guitar)
E)---------------------
B)--------------------
G)---7--6--7--6----
D)--------------------
A)--------------------
E)--------------------

During the synth intro do
*= volume knob swell
E)------------
B)-----------
G)---7*----
D)-----------
A)-----------
E)-----------

At 0:14
E)---------
B)--------
G)--------
D)--------
A)--------
E)---2---

Verse 1 (this note is all during song)
Weird effects / pitch shifter
E)---------
B)--------
G)---4---
D)--------
A)--------
E)--------

At 0:53
E)----------------
B)---------------
G)---------------
D)---------------
A)---2---4------
E)---0---2------

At 1:15
E)------------
B)------------
G)----7------
D)------------
A)------------
E)------------

Chorus
E)---------------------------------------------
B)--------------------------------------------
G)--------------------------------------------
D)---2--2--2--2---4--4--4--4--4--------
A)---2--2--2--2---4--4--4--4--4--------
E)---0--0--0--0---2--2--2--2--2--------

After Chorus
E)---12----12--14-----
B)------------------------
G)------------------------
D)------------------------
A)------------------------
E)------------------------

At 1:50
E)-----------
B)----------
G)----------
D)----9----
A)----------
E)----------

After 2nd Chorus
B=bend 1/2 step
E)-------------------------------------------------
B)---5b--5b--5b--5b--5b--5b--5b--5b---
G)------------------------------------------------
D)------------------------------------------------
A)------------------------------------------------
E)------------------------------------------------

Before Bridge
B=bend 1/2 step
E)-----------------------------
B)----------------------------
G)----------------------------
D)---9--9b--9--8--9b-----
A)----------------------------
E)----------------------------

After Bridge
B=bend w/ whammy bar
E)-----------------------------------------------------------------
B)----------------------------------------------------------------
G)-----------------9--9--11--11--12 / 14--16--16--16--
D)---9--9b--9--------------------------------------------------
A)----------------------------------------------------------------
E)----------------------------------------------------------------

At 4:38 until 5:35
E)---12--12--12--12--12--12--12--12----
B)------------------------------------------------
G)------------------------------------------------
D)------------------------------------------------
A)------------------------------------------------
E)------------------------------------------------
For above riff
Throw in some bends
End above riff on
E)---14b----
B)------------

End song doing chorus over and over

Lyrics




Ваше мнение



Капча