From: (Robert Shively)
Date: 10 Jun 1995 18:44:32 GMT
Subject: TAB: Bush - "Little Things"
Anyway, if you really want the real Little Things,
And aren't tuned down, then it goes:
E ---------------------------
B ---------------------------
G -------------5-5--5-5---7-7
D -7-7---3-3---5-5--5-5---7-7
A -7-7---3-3---3-3--3-3---5-5
E -5-5---1-1-----------------
And the arpeggioed (isn't that how you spell it?) part
Goes:
E -------------------------------
B -------------------------------
G -----5-------5-------5-------7-
D ---5---5---5---5---5---5---5---
A -3-------3-------3-------3-----
E -------------------------------
If you want the entire thing, email me.
Bobby Shively
[email protected]
From: [email protected]
Subject: Tabliture
Group: Bush
Song: Little Things
Transcribed by -------------Michael R Oliver------------------
Note: if you download this song and print it out, go into windows and
Download it from the NOTEPAD, not WRITE, or ANYTHING ELSE. If you don't
Print it out on the NOTEPAD all the tabliture will come out funny!
This is the new Bush single. It is another great song of the awesome
Sixteen stone album. This song is yet another masterpiece of Gavin
Rossdale. This song isn't that hard at all. I've made an attempt
At some of the rythm fills of the song, they are not that accurate, but
Will do. I don't have my guitar by me right now so I probably have
Many mistakes in here........oh well, I'm sure you will figure them out
Guitar
======
There is basically one chord progression for the entire song.
These are the four chords basically used for little things.
B |-----| G |-----| D |-----| E |-----|
|-----| |-----| |-----| |-----|
|--4--| |-----| |--7--| |--9--|
|--4--| |--5--| |--7--| |--9--|
|--2--| |--5--| |--5--| |--7--|
|-----| |--3--| |-----| |-----|
The progression just is B-G-D-E through the entire song.
This is played in the beginning, the chorus and maybe (i'm not sure) at
Some other points in the song.
================================================================
Notation:
S=slide
H=hammer on note
P=pull of note
V=vibrato
Some other times in the song, he picks out the chords:
E |-------------------------------------|
B |-------------------------------------| (or something like that)
G |------4---------------7--------9-----|
D |----4---4-----5-----7---7----9---9---|
A |--2---------5---5-5-------5s7--------|
E |----------3--------------------------|
================================================================
This part comes in at about 1.31 minutes
E |---------------------------------------------|
B |--------8---10-8-----8-----------------------| (it's late, i'm tired,
G |--7h9-7---7------9-7----7-9-7-5-7-5-4-5-4-2--| here is all i could
D |---------------------------------------------| come up with)
A |---------------------------------------------|
E |---------------------------------------------|




Ваше мнение



Капча