T. See http://www.olga.net/faq/ for more information. #

Date: Sat, 1 Jan 2000 20:54:13 -0800 (PST)
From: n f
Subject: b/bush/letting_the_cables_sleep.tab

Letting The Cables Sleep by Bush
Words and Music by Gavin Rossdale
Piano by Sacha Puttnam
Strings by Sacha Puttnam and Rosie Witters
Intro/Verse
-------------------------------------
-----3---------5---------------------
-------4---------6-------------------
---------5---------7------9---9---9--
------------------------9---9---9----
---3---------5--------7--------------

Pre-Chorus
------------------------------------
-----------3---------------5--------
---------4---4-----------6---6------
-------5-------5-------7-------7----
-----5-----------5---7-----------7--
---3---------------5----------------

Chorus
G F# A B (second time these crds twice
Then play second set of crds)
G F# G F#

Outro
G B -|
Singing here-------------- | play
G F# | 4x
(------instrumental--------) -|

G F#

( then first outro pattern continues till end)

SONG FORM

VERSE
CHORUS
VERSE
CHORUS
OUTRO

TAB BY ZERO606
SEND COMMENTS/CORRECTIONS TO [email protected]




Ваше мнение



Капча