this tab is 100% correct
key
w=wammy bar
h=hammer
/=slide

intro
play 4 times
e---------------8----------------------8--------------
b---------8-------8-----8--------8--------8-----8-----
g------8-----8-------8--------8----8---------8--------
d--10----------------------9--------------------------
a-----------------------------------------------------
E-----------------------------------------------------

(This is the bass part after the intro)
do you feel the way you hate
e-----------------------------------------------------
b-----------------------------------------------------
g-----------------------------------------------------
d-----------------------------------------------------
a--3--3--3--1--3--------------------------------------
E-----------------4--4-------4-4-4-4-4-4--------------
(this is what gavin plays)
Im screaming daisies from 14 miles away

e-----------------------------------------------------
b-----------------------------------------------------
g------------1111111111-------------------------------
d--3333333--------------------------------------------
a-----------------------------------------------------
E-----------------------------------------------------
(this is he next part)
Make up your mind
e--------------------------------------------------------
b--------------------------------------------------------
g--------------------------------------------------------
d--------------------------------------------------------
a-1---1--------------------------------------------------
E---------1---1------4---4----0-----1---0-----4-----0---1

(this is the solo, it is very easy)
e-----8--------8---------8--------8-------------------
b--------9--9---------------9--9----------------------
g----------------10--10-------------10----10----------
d-----------------------------------------------------
a-----------------------------------------------------
E-----------------------------------------------------
(this is the bass solo, kinda tricky)
e-----------------------------------------------------
b-----------------------------------------------------
g-----------------------------------------------------
d-----------------------------------------------------
a-----------------------------------------------------
E---4/6---8-9-8/4--4/6-----10w----8-9-8-9-8-9-8-9-8---
e-----------------------------------------------------
b-----------------------------------------------------
g-----------------------------------------------------
d-----------------------------------------------------
a-----------------------------------------------------
E--8-9-8-9-8-9-8-9-8-8/4--8/4-8/4w--------------------
That's the tab, have buckets of fun
if you have any qwestions email me at [email protected]




Ваше мнение



Капча