Bush - Glycerine
----------------
This is a corrected version of Theo's version.
There are only two changes:
- D is now Dm
- the bassline was made more powerfull
Yellow
[email protected]
-------------------------------------------------------
Intro: F C Dm Bb (x2)
Verse:
F C Dm
Must be your skin i'm sinkin' in
Bb F
Must be for real 'cause now I can feel
C Dm
I didn't mind it's not my kind
Bb F
It's not my time to wonder why
C Dm
Everything's gone white everything's gray
Bb F
Now you're here now you're away
C Dm
Don't want this remember that
Bb F
I'll never forget where you're at

Chorus:
C Dm Bb F C Bb
Don't let the days go by glycerine
F C Bb
Glycerine

Verse:
I'm never alone I'm alone all the time
Are you at one do you lie
We live in a wheel where everyone steals
And when we rise it's like strawberry fields
Treated you bad you bruise my face
Couldn't love you more you've got a beautiful taste
Chorus:
C Dm Bb F C Dm
Don't let the days go by could've been easier on you
Bb F
I couldn't change,though I wanted to
C Dm Bb
Should've been easier by three our old friend fear, and you and me
F C Bb F C Bb
Glycerine glycerine
Don't let the days go by glycerine
Don't let the days go by aye aye
Glycerine glycerine
Glycerine glycerine
Bad moon white again bad moon white again
As she falls around me
Verse:
Needed you more you wanted us less
Could not kiss just regress
It might just be clear simple and plain
Well that's just fine that's just one of my names
Chorus:
Don't let the days go by could've been easier on you,you,you
Glycerine glycerine
Glycerine glycerine

Bassline:
Verse:
D|-----------------5--5-5--5-5-5--7--7-7--7-7-7--7--7-7--7-7-7-
A|--3--3-3--3-3-3--3--3-3--3-3-3--5--5-5--5-5-5--1--1-1--1-1-1-
E|--1--1-1--1-1-1----------------------------------------------
Chorus:
D|--5--5-5--5-5-5--7--7-7--7-7-7--3--3-3--3-3-3-----------------5-5-5--3-3-----------------5-5-5--3-3----------------
A|--3--3-3--3-3-3--5--5-5--5-5-5--1--1-1--1-1-1--3--3-3--3-3-3--3-3-3--1-1--3--3-3--3-3-3--3-3-3--1-1--3--3-3--3-3-3-
E|-----------------------------------------------1--1-1--1-1-1--------------1--1-1--1-1-1--------------1--1-1--1-1-1-




Ваше мнение



Капча