Artist: Bush
Song: Glycerine
Written by: Gavin Rossdale
Tabbed by: Drew Montgomery
Tuning: standard
E-mail: [email protected]

This whole song is just two guitars layerd together, but
can easily be played by one. There's only two riffs with
a little palm-muting. I will also include the bass lines.

Intro/Verse(distortion)

E|---------------------------------------------------------|
B|---------------------------------------------------------|
G|---------------------------------------------------------|
D|----------------5-5-x-5-x-5-x-7-7-x-7-x-7-x-3-3-x-3-x-3--|
A|--3-3-x-3-x-3-x-3-3-x-3-x-3-x-5-5-x-5-x-5-x-1-1-x-1-x-1--|
E|--1-1-x-1-x-1-x-----x---x---x-----x---x---x-----x---x----|

Intro/Verse(bass)

G|---------------------------------------------------------|
D|---------------------------------------------------------|
A|----------------3-3-3-3-3-3---5-5-5-5-5-5---1-1-1-1-1-1--|
E|--1-1-1-1-1-1--------------------------------------------|

Chorus(distortion)

E|---------------------------------------|
B|---------------------------------------|
G|---------------------------------------|
D|--------------x-x-x-x-5-5-x-x-x-x-3-3--|
A|--3-3-3-3-3-3-x-x-x-x-3-3-x-x-x-x-1-1--|
E|--1-1-1-1-1-1-x-x-x-x-----x-x-x-x------|

Chorus(bass)

G|---------------------------------------|
D|---------------------------------------|
A|--------------3-3-3-3-3-3-1-1-1-1-1-1--|
E|--1-1-1-1-1-1--------------------------|

There are no guitars or bass in the bridge with the
violin and cello, but here is a little get-by riff
for the bass.

G|-----------------------------------|
D|-----------------------------------|
A|--1-1-1-1-1-1-1h3------------------|
E|------------------1-1-1-1-1-1-1-1--|

That's it for a simple but great song from Bush!!!




Ваше мнение



Капча