Title: Float
Artist: Bush
Album: Golden State
Instrument: 6 String Guitar
Tabbed by: WW ([email protected])
Tuning: Dropped D (D A D G B E)
THIS TAB IS ALMOST CORRECT!
CHORDS
D F# B A G
E|-0---4---9----7---5----|
B|-3---7---12---10--8----|
G|-2---6---11---9---7----|
D|-0---4---9----7---5----|
A|-0---4---9----7---5----|
D|-0---4---9----7---5----|
INTRO
E|-----------------------------------------|
B|-----------------------------------------|
G|-------6---4------7----------------------|
D|-----4---4------4-----4/54--2/4---------|
A|---4----------5-------5------0-----------|
D|-0------------0-------0------------------|
You have to play the intro 4 times (3rd and 4th time guitar 2 plays a D)
Verse 1:
F#
It's a beautiful world but everyone's insane
B
Either you swim or either you fade
F#
It's a revolution time we're sleeping at the wheel
B
Apocalypse child in a nuclear field
F#
We want to change the world but not what holds us back
B
I want to be for you what I never had
PRE-CHORUS
A F# B
And all of this time I was just trying to reach you
G A
Through the rain traffic
CHORUS
D B
As you float into space
D B
Your white eyes hide your face
D B
As you float in between
D B
I am with you. If you leave
Verse 2
Intro:
F# F# B B B(5x)
E|-4-----4------------------------9----9-------------|
B|-7-----7------------------------12---12------------|
G|-6-----6------------------------11---11------------|
D|-4-----4--5-5-5-5---play 2x-----9----9---9-9-9-9---|
A|-4-----4------------------------9----9-------------|
D|-4-----4------------------------9----9-------------|
LYRICS (play this like verse 1):
Fragile to the waves
vicissitudes of days
When I am with you I feel a little brave
The madness and the wars the circles that we run
Confusion we import look what we have become
Then play PRE-CHORUS
Then play the CHORUS
BRIDGE(this isn’t right, but sounds good)
E|------------x---0-------2-----2--3------------------|
B|------------3---3-------3-----3--3------------------|
G|---6--------2-/-2-------2-----2-2------------------|
D|---4--6x----0---0--6x---4-6x--0--0-a lot of times---|
A|---4--------0---0-------0-----0--0------------------|
D|---0--------0---0-------0-----0--0------------------|
OUTRO: play CHORUS 2x




Ваше мнение



Капча