Date: Tue, 30 May 1995 16:03:30 -0400
From: [email protected]
Group: Bush
Song: Everything Zen
Somebody requested it so i did it
-------------------
Transcribed by | Michael R. Oliver |
-------------------
Important:
When you download the song, to read it, go into windows and open it
Through the NOTEPAD or else all the tab will come out wrong.
Somebody requested the lead part to Everything Zen so i am posting it.
Sorry that it took so long but here it is. It is an easy song aside from
The lead parts. IF ANYBODY HAS ANY INFO AN BUSH TOURING THE NEW YORK
AREA (WITHIN 4 HRS. AWAY) PLEASE E-MAIL ME!!!!!
Guitar parts:
------------
Verse:
It easy
E |---------------------------------------|
B |---------------------------------------|
G |----------------------7-x--5----5-5-5--|
D |--2--2-----2--2-2-2---7-x--5----5-5-5--|
A |--2--2--2--2--2-2-2---5-x--3----3-3-3--|
E |--0--0--3--0--0-0-0--------------------|
Chorus:
E |---------------------------------------------------------------------|
B |---------------------------------------------------------------------|
G |---------------------------------------------------------------------|
D |--7--7---7--7--x--3--3--3--3--3---5--5--5--5--5--5--5--5--5-5--5--5--|
A |--7--7---7--7--x--3--3--3--3--3---5--5--5--5--5--5--5--5--5-5--5--5--|
E |--5--5---5--5--x--1--1--1--1--1---0--3--0--3--0--3--0--3--0-3--0--3--|
"i don't believe that elveis is dead" part he plays
A D-Bb-G-C progression (just repeat it a couple of times)
D |-----| Bb |-----| G |-----| C |-----|
|-----| |-----| |-----| |-----|
|--5--| |--3--| |-----| |--5--|
|--5--| |--3--| |--5--| |--5--|
|--3--| |--1--| |--5--| |--3--|
|-----| |-----| |--3--| |-----|
*********************************************
This is the slide part in the begining of the song, you have
To go crazy and have fun with it
Remember to use a slide
E |------this part goes on for a while so bear with it---------------|
B |------------------------------------------------------------------|
G |--2/////////////5///////////9//////////12////////15///////17///---|
D |--2/////////////5///////////9//////////12////////15///////17///---|
A |--2/////////////5///////////9//////////12////////15///////17///---|
E |--2/////////////5///////////9//////////12////////15///////17///---|
Now you use the wammy bar
E |------------------------------------------------------------------|
B |------------12v----12v----12---12v------------12v----12v-12/17v---|
G |--12v---------------------------------12v-------------------------|
D |------------------------------------------------------------------|
A |------------------------------------------------------------------|
E |------------------------------------------------------------------|
E |------------------------------------------------------------------|
B |--17v------17-----17----15v-------15-----15-------------------15v-|
G |-----------------------------------------------16v----------------|
D |-----------------------------------------------16v----------------|
A |------------------------------------------------------------------|
E |------------------------------------------------------------------|
E |------------------------------------------------------------------|
B |--15v------------14v----------------13v---------------------------|
G |----------14v-------------13v-------------------12v-----12\11/12--|
D |------------------------------------------------------------------|
A |------------------------------------------------------------------|
E |------------------------------------------------------------------|
That is the first little solo
**********************************************************************
After the lines "asshole brother" there is a little fill
Use the slide for it
E |------------------|
B |--12////////////--|
G |--12////////////--|
D |------------------|




Ваше мнение



Капча