Bush
Everything Zen
transcribed by Jeff Powell
email [email protected]

Intro (after guitar opening)

G----------------
D----------------
A--5-3-----------
E-------0-0-3-0--

Verse

G----------------------
D----------------------
A-----------5-5/7-7-7--
E--0-0-3-0-------------

Pre-Chorus/Lead Into 2nd Verse

G-----------------
D-----------------
A------------5-3--
E--0-0-3-0--------

Chorus (play repitition of 0-3 combination leading into bridge)

G---------------------------------------------------------
D---------------------------------------------------------
A--0--0--0-0-0--------------------------------------------
E--------------1--1-1--1-1-1--0-3--0-3--0-3--0-3-0-3-0-3--

Bridge

G-----------------------------------------------------
D-----------------------------------------------------
A--5--1-----3--5--1-----5--1-----3--5--1-----1-----1--
E--------3-----------3--------3-----------3-----3-----
I don't think that Elvis is dead, yah....

Guitar Solo

G---------------------
D--2-2-2-2-2-2--0-----
A------------------3--
E---------------------

Last Verse

G------------------------
D------------------------
A-------------------5-3--
E--0-0-0-0-0-0-0-0-------

There's no sex...

Outro (same as guitar solo)
At the closing of the song, play the 0-3 combination again




Ваше мнение



Капча