From [email protected] Mon May 12 14:02:29 1997
Date: Sun, 04 May 1997 11:42:56 -0700
From: Gilbert Hale
To: [email protected]
Subject: TAB:distant Voices by Bush
[The following text is in the "iso-8859-1" character set]
[Your display is set for the "US-ASCII" character set]
[Some characters may be displayed incorrectly]
BUSH
Distant Voices
Razorblade Suitcase
Transcribed by Joe Hale
This tab shows all the chords in the song, but you^Тll have to listen to the
Song to get a feel for which notes to play off each chord, and the rhythm.
You^Тll need two guitars for it to sound exactly as it does on the record. I
Recorded a couple tracks on my 4 track and it sounds right, so I^Тm sure this
Tab is correct.
Part A: Fill 1
Guitar 1
E|--------------------|--------|
B|--------------------|--------|
G|--7--/11---\7--/11--|--11\7--|
D|--------------------|--------|
A|--5---/9---\5---/9--|--------|
E|--------------------|--------|
Guitar 2
E|-----------------2--|
B|-----------------2--|
G|--7--/11---\7----3--|
D|-----------------4--|
A|--5---/9---\5----4--|
E|-----------------2--|
Part B1: Fill 2
Guitar 1
E|-------0----2-----------|--/10-10-10-10-pu-9-9--|
B|--7----3----2-----------|-----------------------|
G|--7----4----3^Ч3-3-3-3---|-----------------------|
D|--7----4----4---------4-|-----------------------|
A|--5----2----4-----------|-----------------------|
E|------------2-----------|-----------------------|
Part B2:
Guitar 2
E|-----------------------2----------|-----------------------|
B|-----------------------2----------|-------------------11--|
G|--7--9/11--11--11-4\3--3^Ч4-4-pu-3-|--7--9/11--11--11--11--|
D|--7---------9----------4----------|--7---------9----------|
A|--5---------9----------4----------|--5---------9----------|
E|-----------------------2----------|-----------------------|
Part C: Variation of F#
E|--0----2----0----3----2----|--2-----------2--|
B|--0----2----0----3----2----|--2-----------2--|
G|--1-^Ч--3----1----4----3----|--3-----------3--|
D|--2^Ч---4----2----5----4----|--4-----------4--|
A|--2^Ч---4----2----5----4----|--4-----4-----4--|
E|--0^Ч---2----0----3----2----|--2-0-2---2-2-2--|
Part D:
Fill 4
E|----5----3----2--|---------|
B|----5----3----2--|---------|
G|----6----4----3--|---------|
D|----7----5----4--|--4------|
A|----7----5----4--|----4----|
E|----5----3----2--|------2--|
Part E:
E|----------------------------|
B|----------------------------|
G|----------------------------|




Ваше мнение



Капча