BAND: Bush
SONG: Distant Voices
CD: Razorblade Suitcase

Intro:

-0-------------------------------------------0-----0---0-|
-0-----------------------------------------0-----0-------|
-7-7-7-7-7-7-7-7/11-11-11-11-11-11-117--3-----3-----3---|
---------------------------------------------------------|
---------------------------------------------------------|
---------------------------------------------------------|



The notes played where the line stretches are played a lot more
than I wrote. Sorry but I just took an estimate, I didnt sit around
and count how many times he playes one note.

-0---------------------|
-0---------------------|
-7--7/9---2-4-2-4--2---|
---------------------4-|
-----------------------|
-----------------------|

In the Intro, a lot of open strings are played at random
so just fool around with them.

Verses:

-0--0----------------|
-0--0----------------|
-7--4---2-4-2-4--2---|
-------------------4-|
---------------------|
---------------------|

Fool around with the open strings again.

1st Chorus: (clean)

-------------|
-------------|
-4--6--4--8--|
-5--7--5--9--|
-5--7--5--9--|
-3--5--3--7--|
When you switch between the first and the second and second to third,
the amount of time you play the chords is the same. When you switch from
the third to the fourth, make it a quicker switch.

2nd/3rd Chorus: (distorted)

Play the same rhythm in the first chorus only end it like this:

---------------------|
---------------------|
-4-----------------6-|
-5-----------------7-|
-5-----------------7-|
-3--0-3--0-3--0-3--5-|
====




Ваше мнение



Капча