T. See http://www.olga.net/faq/ for more information. #
Date: Sun, 27 Jun 1999 01:57:53 -0700 (PDT)
From: aa aa
Subject: b/bush/contagious.tab
BAND: Bush
COMMETS SEND TO [email protected]
SONG: Cold Contagious
THE RIGHT TABS
CD: Razorblade Suitcase
Intro:
-0------0-------0---------------------|--------------------------|
-0------0--------------------0---0----|-----------------0---0----|
---------------------------5-------/9-|------9\-5-----5-------/9-|
-------------------------5-----5---/9-|-------\-5---5-----5---/9-|
------------------------------------7-|----7--\-3--------------7-|
--------------------------------------|--------------------------|

--------------------|
----------------0---|
-----9\-/5----5---/-|
---9--\-/5--5-----/-|
-7----\-/3----------|
--------------------|

Verse:
-------------------|
---------------0---|
-----9\-5----5---/-|
---9--\-5--5-----/-|
-7----\-3----------|
-------------------|
Pre-Chorus:
--------------------------------------------|
--------------------------------------------|
-9--9-9-9--9-9-9-9-9-\-5-5-5-5--5-5-5-5-5-/-|
-9--9-9-9--9-9-9-9-9-\-5-5-5-5--5-5-5-5-5-/-|
-7--7-7-7--7-7-7-7-7-\-3-3-3-3--3-3-3-3-3-/-|
--------------------------------------------|
(bolds=P.M. chords)
Chorus: (distorted)
------------------------|
------------------------|
----------5--5-5-5--5-5-|
-7--7--7--5--5-5-5--5-5-|
-7--7--7--3--3-3-3--3-3-|
-5--5--5----------------|
------------------------|
------------------------|
------------------------|
-5--5-5-5-3-3-3-3-3-3-3-|
-5--5-5-5-3-3-3-3-3-3-3-|
-3--3-3-3-1-1-1-1-1-1-0-|
--play only this twice--
1st time:
All Guitars back to Verse.
2nd time:
------------------------|
------------------------|
-9--9--9--5-5-5-5-5-5-5-|
-9--9--9--5-5-5-5-5-5-5-|
-7--7--7--3-3-3-3-3-3-3-|
------------------------|
------play 3 times------

Solo:
-----------------------------------------------------------------|
-----------------------------------------------------------------|
-12-12-12-12-12-12-12-12-12-12-12-12/15-15-15/17--17-17-17-17-17-|
( ^pick 12 as fast as possible)----------------------------------|
-----------------------------------------------------------------|
-----------------------------------------------------------------|
(Also, flick the toggle rapidly while playing 12)

----14b15r14-12-11-b12r-b12r-b12r-b12r-|
---X-----------------------------------|
--X------------------------------------|(just fill the end of this with
-X-------------------------------------|feedback and bends)
---------------------------------------|
---------------------------------------|




Ваше мнение



Капча