BAND: Bush
SONG: Comedown
CD: Sixteen Stone

Intro:

Play this a few times loosely:

----0-0-----0-0----0----0-|
----0-0-----0-0----0----0-|
-4--4-4--2--2-2-3--3-0--0-|
-4--4-4--2--2-2-4--4-0--0-|
-2-------0------4----3----|
----------------2----2----|

Chorus:

Play these 3 chords loosly:

-------3-| |---------------------|
-3--0--3-|after the |-5b6-h5-h5-h5-h5-h5r-|
-2--2--0-|last chord|---------------------|
-0--2--0-|play this |---------------------|
-0--0--2-|sometimes:|---------------------|
-------3-| |---------------------|
(h=hold bent note)

Solo: (Right from Chorus)

----------------------------------------------------------------|
-----------------------------------------10------------------10-|
-12-12-12-12-11--11-11-/12-11--11ho12-12----11ho12-11ho12-12----|
----------------------------------------------------------------|
----------------------------------------------------------------|
----------------------------------------------------------------|

---------------------------12-12-12-12-12-12-12-|
---------------12-12-12-12-12-12-12-12-12-12-12-|
-/12-12-12-12/----------------------------------|
------------------------------------------------|
------------------------------------------------|
------------------------------------------------|
Shoot Up.......Shoot Up....Shoot Up...Your.......

-------------------------------------|
-12po10--9--7--7/9-10-9--7--5~~~~~~~|
-------------------------------------|
-------------------------------------|
-------------------------------------|
-------------------------------------|
High.....................


Yahoo! Broadcast


undefined
More...



[Close]



[Close]


undefined




Ваше мнение



Капча