E: Sun, 1 Mar 1998 19:49:45 -0300
From: Raphael Cunha
Subject: TAB: 'Cold Contagious' by Bush
Author/Artist: Bush
Title: Cold Contagious
Album: Razorblade Suitcase
Transcribed by: Raphael Cunha
Email: [email protected]
This is a simple song. The introduction and verses are only E / C.
INTRO and Verses:
--------------------------|
--------------------------|
-9-9-9-9-9-9--5-5-5-5-5-5-|
-9-9-9-9-9-9--5-5-5-5-5-5-|
-7-7-7-7-7-7--3-3-3-3-3-3-|
--------------------------|
E C
Chorus:
---------------------------------------------|
---------------------------------------------|
-----------5-5-5-5-5-------------------------|
-7-7-7-7-7-5-5-5-5-5-5-5-5-3-3-3-5-5-5-3-3-3-|
-7-7-7-7-7-3-3-3-3-3-5-5-5-3-3-3-5-5-5-3-3-3-|
-5-5-5-5-5-----------3-3-3-1-1-1-3-3-3-1-1-1-|
A5 C5 G5 F5 G5 F5
Simple huh?




Ваше мнение



Капча