Date: Fri, 05 Dec 1997 19:56:21 -0500 (EST)
From: N1Nana9568
Subject: Tab: Bubbles by Bush
Song: Bubbles
Band: Bush
Album: Mallrats: Soundtrack
Tabbed by: Jesse Nepivoda
Intro
D#5 D5 D#5 A5
E)------------------------------------------------
B)------------------------------------------------
G)---8--8--8---7--7---8--8---2--2--2------
D)---8--8--8---7--7---8--8---2--2--2------
A)---6--6--6---5--5---6--6---0--0--0------
E)------------------------------------------------
Above riff x2
Then
E)--------------------------------------------------
B)-------------------------------------------------
G)---8--8--8--7--7--8--8--14--14--14----- x2
D)-------------------------------------------------
A)-------------------------------------------------
E)-------------------------------------------------
Verses
Muting that produces harmonics
And weird feedback
Pre-Chorus
C5 D5
E)--------------
B)--------------
G)---5---7----
D)---5---7----
A)---3---5----
E)--------------
Chorus
G5 F#5
E)--------- e)--------
B)-------- B)--------
G)-------- x12 G)-------- x12
D)---5--- D)---4---
A)---5--- A)---4---
E)---3--- E)---2---
Bridge
E)---------7--6--9-------
B)----8-------------------
G)------------------------
D)------------------------
A)------------------------
E)------------------------
After above riff does x1 do
E)------------------------------------------------------------
B)-----------------------------------------------------------
G)-----------------------------------------------------------




Ваше мнение



Капча