Date: Fri, 5 Dec 1997 19:30:10 EST
From: N1Nana9568
To: [email protected]
Subject: Tab: Broken TV by Bush
Song: Broken TV
Band: Bush
Album: White Man's Burden: Soundtrack
And Swallowed: Single
Tabbed by: Jesse Nepivoda
This is a good song. It can also be found on some bootlegs
H=hammer on
B=bend 1/2 step
Intro Bass Riff (arranged for guitar)
E)--------------------------------------------------------
B)-------------------------------------------------------
G)-------------------------------------------------------
D)-------------------------------------------------------
A)-------------------------------------------------------
E)---7--5--7--7--7--0--2---2--2--2--5--5--5----
E)---------------------------------
B)--------------------------------
G)--------------------------------
D)--------------------------------
A)--------------------------------
E)---7--5--7--7--7--0--2-----
Intro Lead Guitar Riff
E)------------------------------------------------------------------------
B)-----------------------------------------------------------------------
G)-----------------------------------------------------------------------
D)-----------7h9--9--9--7-------------------7h9--9--9--7--9b---
A)---7h9----------------------9b----7h9----------------------------
E)-----------------------------------------------------------------------
E)---------------------------------------
B)--------------------------------------
G)--------------------------------------
D)-----------7h9--9--9--7-----------
A)---7h9----------------------9b----
E)--------------------------------------
Intro Rythm Guitar Riff
E)---------------------------------------------------------
B)--------------------------------------------------------
G)--------------------------------------------------------
D)---9--9--9------7--7-----4--4--4--4--7--7--7---
A)---9--9--9--0--7--7--0--4--4--4--4--7--7--7---
E)---7--7--7--0--5--5--0--2--2--2--2--5--5--5---
The first verse is just bass
Chorus
E)-------------------------------------------------------
B)------------------------------------------------------
G)------------------------------------------------------
D)---4--4--4--4--0--7--7--7--7--7--7--7--7----
A)---4--4--4--4--0--7--7--7--7--7--7--7--7----
E)---2--2--2--2--0--5--5--5--5--5--5--5--5----
The verse after the first chorus has the intro
Rythm guitar riff playing along with the vocal line




Ваше мнение



Капча