This is a rare bush song tabbed by Martin Shrewsbury and Brian Tooley we hope you
like and we hope it sounds right and check out some of the tabs from my band sheep.

guitar 1
e----------------------------------------------------------
b----------------------------------------------------------
g----------------------------------------------------------
d-------7h9-9-9-7---------------7h9-9-9-7---9b-------------
a---7h9-------------9b------7h9----------------------------
e----------------------------------------------------------

e---------------------------------------
b---------------------------------------
g---------------------------------------
d-------7h9-9-9-7-----------------------
a---7h9-------------9b------------------
e---------------------------------------

guitar 2 plays this with intro (this is also the verse)
e--------------------------------------
b--------------------------------------
g--------------------------------------
d---9-9-9-x--7-7-x--4-4-4-4--7-7-7-----
a---9-9-9-x--7-7-x--4-4-4-4--7-7-7-----
e---7-7-7-x--5-5-x--2-2-2-2--5-5-5-----

chorus
e---------------------------------------------
b---------------------------------------------
g---------------------------------------------
d-10-10-10-10-10-10-10-10-----7-7-7-7-7-7-----
a-10-10-10-10-10-10-10-10-----7-7-7-7-7-7-----
e--8--8--8--8--8--8--8--8-----5-5-5-5-5-5-----

and thats it but dont forget to check out some of my band sheeps tabs




Ваше мнение



Капча