Bonedriven - Bush
Written By Gavin Rossdale - In normal tuning
On Razorblade Suitcase
Tabbed By AJ Vanb

Key: / = Slide down = slide up
h = hammer on (m) = mute string after it has been played
p = pull off * = distorted

Intro:
|----------------------------------------------------------------|
|-----0---0-----------------------0---0--------------------------|
|---2---------------------------2--------------------------------|
|-2-----------2-2-2-2-0-4/2---2---------2-2-2-2-0-4/2------------|
|-------3---2-----------------------3----------------------------|
|----------------------------------------------------------------|

|----------------------------------------------------------------|
|-----0---0-----------------------0-----0------------------------|
|---2---------------------------2-----0--------------------------|
|-2-----------2-2-2-2-0-4/2---2----------------------------------|
|-------3---2-----------------------3-----2----------------------|
|----------------------------------------------------------------|

That last B note is held until Gavin starts singing ?Just a wish...?
Then comes the verse which is basically the same:

Verse:
|----------------------------------------------------------------|
|-----0---0---0-0---0------0-----0---0-0---0---------------------|
|---2--------------------2-----0---------------------------------|
|-2--------------------2-----------------------------------------|
|-------3---2-----2----------3-----2-----2-----------------------|
|----------------------------------------------------------------|

Repeat this twice then move on to the bridge;

Bridge:
|----------------------------------------------------------------|
|-35-0-----0-----0---0-0------35-0-----0---0---0---------------|
|---------2-----0----------------------2-------------------------|
|-------2----------------------------2---------------------------|
|-------------3-----2----------------------3---2-----------------|
|----------------------------------------------------------------|

|----------------------------------------------------------------|
|-35-0-----0---0---0-0-------35-0-----0---0---0-0--------------|
|---------2---------------------------2---------------0----------|
|-------2---------------------------2----------------------------|
|-------------3---2-----------------------3---2-----2------------|
|----------------------------------------------------------------|

Then comes the chorus in chords:

Chorus:
|-x-x-x-x-0-0-----x-x-x-x-0-0-----0-0-0-0-0-0--------------------|
|-3-3-3-3-0---0---3-3-3-3-0---0---1-1-1-1-0---0------------------|
|-0-0-0-0-0-----0-0-0-0-0-0-----0-0-0-0-0-2-----2----------------|
|-0-0-0-0-2-------0-0-0-0-2-------2-2-2-2-2-------2-2h3p2-2-2h3p2|
|-x-x-x-x-2-------x-x-x-x-2-------3-3-3-3-0----------------------|
|-3-3-3-3-0-------3-3-3-3-0-------x-x-x-x------------------------|
Bonedriven Bonedriven See we?re taking all the life

|-------------------------------------------------------------------|
|-------------------------------------------------------------------|
|-------------------------------------------------------------------|
|-2-2h3p2-2---------------------------------------------------------|
|-------------------------------------------------------------------|
|-------------------------------------------------------------------|
The last bit in the chorus is the violin part played at the end, so it?s only optional. Then comes the
again:

|----------------------------------------------------------------|
|-----0-----0---0---0-0-------0---0---0---0-0--------------------|
|---2-----0-----------------2-----0------------------------------|
|-2-----------------------2--------------------------------------|
|-------3-----2---2-------------3---2---2------------------------|
|----------------------------------------------------------------|

This is repeated twice, then comes the bridge, which is the same as before, and then comes the interlude
the bridge and the chorus:

|----------------------------------------------------------------|
|----------------------------------------------------------------|
|-5-5-5-5-5-5-5-5---4-4-4-4-4-4-4-4---5-5-5-5-5-5-5-5---4-4-4-4-4|
|-5-5-5-5-5-5-5-5---4-4-4-4-4-4-4-4---5-5-5-5-5-5-5-5---4-4-4-4-4|
|-3-3-3-3-3-3-3-3-0-2-2-2-2-2-2-2-2-0-3-3-3-3-3-3-3-3-0-2-2-2-2-2|
|----------------------------------------------------------------|
Heaven kn-ows and walks away, heaven kn-ows and walks
|----------------------------------------------------------------|
|----------------------------------------------------------------|
|-4-4-4----------------------------------------------------------|
|-4-4-4----------------------------------------------------------|
|-2-2-2----------------------------------------------------------|
|----------------------------------------------------------------|
and walks.

Then comes the chorus which is the same as before, but without the violin part at the end, and then
little interlude:

|----------------------------------------------------------------|
|----------------------------------------------------------------|
|-7-7-x-7-7-7-7-7-79-9-9-x-9-9-9-9/7-7-7-x-7-7-7-7-79-9-9-9-9--|
|-7-7-x-7-7-7-7-7-79-9-9-x-9-9-9-9/7-7-7-x-7-7-7-7-79-9-9-9-9--|
|-5-5-x-5-5-5-5-5-57-7-7-x-7-7-7-7/5-5-5-x-5-5-5-5-57-7-7-7-7--|
|----------------------------------------------------------------|
I was wrong and I will wait......

|----------------------------------------------------------------|
|----------------------------------------------------------------|
|-7-7-7-7-7-7-7-79-9-9------------------------------------------|
|-7-7-7-7-7-7-7-79-9-9------------------------------------------|
|-5-5-5-5-5-5-5-57-7-7-57-57-5--------------------------------|
|----------------------------------------------------------------|

Then comes the intro riff, which has changed slightly.

|----------------------------------------------------------------|
|-----0(m)----0--------------------------2-----0-----------------|
|---2----------------------------------2-----0-------------------|
|-2-----------------2-2-2-2-0-4/2----0---------------2-2-2-2-0-4-|
|---------0-3---3-2------------------------3-----3-2-------------|
|----------------------------------------------------------------|

Then it?s the strings solo, and the backing guitar is pretty much spot on.

|----------------------------------------------------------------|
|----------------------------------------------------------------|
|-4------------4--4--4-7---7-7-79--9-9-9/7-7-7-7-7-7-7-7-7-7----|
|-4-(let ring)-4--4--4-7---7-7-79--9-9-9/7-7-7-7-7-7-7-7-7-7----|
|-2------------2--2--2-5---5-5-57--7-7-7/5-5-5-5-5-5-5-5-5-5----|
|----------------------------------------------------------------|
After that, it?s a little guitar part that accompanies the strings:

|----------------------------------------------------------------|
|-8-8-8-7-7-7-5-5-5-3-3-3-------8-8-8-7-7-7-5-5-5-3-3-3----------|
|-------------------------4h5p4-------------------------4h5p4----|
|----------------------------------------------------------------|
|----------------------------------------------------------------|
|----------------------------------------------------------------|
*
|----------------------------------------------------------------|
|-0/8-12---------------------------------------------------------|
|----------------------------------------------------------------|
|----------------------------------------------------------------|
|----------------------------------------------------------------|
|----------------------------------------------------------------|

To get the affect that is achieved, you need to run the pick quickly over the muted string and then obtain
hardcore feedback.

Then comes the verse which is the same as the 1st one, and NO bridge this time, it?s straight into the
which is repeated twice. Then it?s time for the last 2 (pointless) chords to finish this song.

|-0----0---------------------------------------------------------|
|-1----1---------------------------------------------------------|
|-2----0---------------------------------------------------------|
|-2----2---------------------------------------------------------|
|-0----3---------------------------------------------------------|
|----------------------------------------------------------------|

There you have it, a bloody good song. If you have any comments/corrections etc. e-mail me @ [email protected]




Ваше мнение



Капча