Date: Sun, 18 Feb 96 19:10:11 -0500
From: Chris Patterson
Tab:
Artist:Bush
Song:Bomb
Transcribed by:Dan Patterson
Intro:
E:----------------------
B:----------------------
G:--------------7---5h4-
D:--2---55-----7-7------
A:-2-0-3--3/5-5---33----
E:0---------------------
E:--------------------------------
B:-8-7s5s7s5-5s3s5s3-0-3----------
G:-----------------------2s4s2-0--
D:------------------------------4-
A:--------------------------------
E:--------------------------------
I kill a Man, I kill girl
-0- -0- -0-
-5- -3- -7-
-0- -0- -0-
-5- -3- -7-
-3- -1- -5-
-0- -0- -0-

------- End of Forwarded Message




Ваше мнение



Капча