From: [email protected] (Jeff Hayes)
Date: Thu, 21 Dec 1995 14:25:27 GMT

My personal favorite Bush song, "Alien" is once again mostly bass (this
Is
Transcribed elsewhere by moi), but I do have the chorus and strum-along
Outro.

"Alien"
By Bush
From the album "Sixteen Stone"

Verse 1:
Satellite comes and goes
Give each other all we know
In silence we still talk
By the light of the stereo waltz
Will you rain down
In your cinematic love truck
Gonna hold you like
Nothing's gonna stop us

Chorus:

F# E G F#m
--2---2---2---2-------------------3---3---3---3---2---2---------
--2---2---2---2-------------------3---3---3---3---2---2---------
--3---3---3---3---1---1---1---1---4---4---4---4---2---2---------
--4---4---4---4---2---2---2---2---5---5---5---5---4---4---------
--4---4---4---4---2---2---2---2---5---5---5---5---4---4---------
--2---2---2---2-------------------3---3---3---3---2---2---------
And she come to take me away
She's all that I needed
I don't breathe another lover
Yeah

(BASS RIFF)

Verse 2:
Flicker on a TV screen
Everything's more than it seems
Mighty backward fall
Stare at the light on the wall
I swear to this
She felt like velvet
Second blonde child
Like velvet, velvet

CHORUS

Outro (strum these chords repeatedly. the outro is basically this.)
A D/F#
-------------2------------------
--2----------3------------------
--2----------2-------------------
--2----------0-------------------
-------------0-------------------
-------------3-------------------
(T)humb, 3rd fret, low E string
I'm an alien
You're an alien
It's a beautiful rain, beautiful rain, beautiful rain
Beautiful

Suggestions, questions, comments are encouraged.

Jeff Hayes
[email protected]




Ваше мнение



Капча